PrimaNota.ru - самый крупный в мире бесплатный архив песенных текстов, аккордов, табулатур и нот


Kingdom Hearts - Hakari - таба, видео

Регистрация Запомнить меня
Войти через:  Facebook Google Twitter Vk Yandex Mail.ru

Kingdom Hearts - Hakari - таба, видео

Печатать
Просмотров: 112
Уроки эстрадного вокала в Санкт-Петербурге
this is the intro and solo hope u like it =)

e|-------------|---------------------------1----------------------------------|
B|---3-1-------|---------------4-3-----------4-3-1-1-3-4--3---------3-4-1-----|
G|-0-----3-2-3-|---------3-2-3-----3-2-2-3-------------------3------------3-2-|
D|-------------|-3-3-3-3----------------------------------5-----1-1-----------|
A|-------------|--------------------------------------------------------------|
E|-----------x3|--------------------------------------------------------------|

e|1--------1-1-3-1-------1---------------1------------------------------------|
B|-----------------4-3-4-----------4-3-4---3-1--------------------------------|
G|--3-3--3-----------------3-3-0-3--------------3-2-3---2-3-------------------|
D|----------------------------------------------------3-----3-1-0-1-0-1-3-3---|
A|----------------------------------------------------------------------------|
E|----------------------------------------------------------------------------|

e|----------------------------------------------------------------------------|
B|-----------3-1-4-3----------------------------------------------------------|
G|-------3--------------------------------------------------------------------|
D|-5-3-5---3------------------------------------------------------------------|
A|----------------------------------------------------------------------------|
E|----------------------------------------------------------------------------|
Добавлено: 24.05.2012
Другие материалы по этой песне:
  • Аккорды и текст

Страница создана 24.05.2012
http://primanota.ru/kingdom-hearts/hakari-chords.htm
Привет, Гость.
Предлагаем пройти революционный курс по гитаре.
Подарок от PrimaNota.Ru, забирай!