PrimaNota.ru - самый крупный в мире бесплатный архив песенных текстов, аккордов, табулатур и нот


Kingdom Come - Living Out Of Touch - текст песни, таба, видео

Регистрация Запомнить меня
Войти через:  Facebook Google Twitter Vk Yandex Mail.ru

Kingdom Come - Living Out Of Touch - текст песни, таба, видео

Печатать
Просмотров: 360
Living out of touch - Kingdom Come

transcribed by stummerman

stummer@live.co.uk

This version from is the 1988 debut album Kingdom Come 

Key:
/    = slide up
\    = slide down
b    = bend (whole step)
b^   = bend (1/2 step)
b^^  = bend (1 1/2 steps)
t    = tap with righthand finger
~    = Vibrato
*    = Natural Harmonic
**   = Artificial Harmonic



Intro Riff

E|---------------------------------------|----------------------------------|
B|---------------------------------------|----------------------------------|
G|---------------------------------------|----------------------------------|
D|-----5-7---5----5----------------------|-----5-7---5----5-----------------|
A|---------7--------7-----3---5----------|---------7--------7----3-5--------|
E|-------------------------------3---5---|---------------------------3---5--|


E|---------------------------------------|----------------------------------|
B|---------------------------------------|----------------------------------|
G|---------------------------------------|--------------------------5-2-----|
D|-----5-7---5----5----------------------|-----5-7---5----5-----------------|
A|---------7--------7-----3---5----------|---------7--------7---3-5---------|
E|-------------------------------3---5---|----------------------------------|



Verse (chords)

      Am          Fmaj        Am          Fmaj

E|----5------|----1------|----5------|----1-----------|
B|----5------|----1------|----5------|----1-----------|
G|----5------|----2------|----5------|----2-----------|
D|----7------|----3------|----7------|----3-----------|
A|----7------|----3------|----7------|----3---3-2-3-5-|
E|----5------|----1------|----5------|----1-----------|


      Am          Fmaj        Am          Fmaj

E|----5------|----1------|----5------|----------------|
B|----5------|----1------|----5------|----6---5-------|
G|----5------|----2------|----5------|----5---4-------|
D|----7------|----3------|----7------|----3---2-------|
A|----7------|----3------|----7------|----3---2-------|
E|----5------|----1------|----5------|----------------|



Chorus as Intro Riff

E|---------------------------------------|----------------------------------|
B|---------------------------------------|----------------------------------|
G|---------------------------------------|----------------------------------|
D|-----5-7---5----5----------------------|-----5-7---5----5-----------------|
A|---------7--------7-----3---5----------|---------7--------7----3-5--------|
E|-------------------------------3---5---|---------------------------3---5--|


E|---------------------------------------|----------------------------------|
B|---------------------------------------|----------------------------------|
G|---------------------------------------|--------------------------5-2~~---|
D|-----5-7---5----5----------------------|-----5-7---5----5-----------------|
A|---------7--------7-----3---5----------|---------7--------7---3-5---------|
E|-------------------------------3---5---|----------------------------------|



Solo 

E|----------|----------------------------------------|-----------------------|----------|
B|----------|---15b^^-(15bv)--15---12----12-15-12----|----------------7------|----------|
G|----9b^^--|------------------------14--------------|------------7-9--------|----------|
D|----------|----------------------------------------|--------7-9-------9----|--7**~~---|
A|----------|----------------------------------------|----7-9----------------|----------|
E|----------|----------------------------------------|-----------------------|----------|


E|----------------------12-15b^^-(15)-12------|-----------12-15b^^--t17-15--12----------|
B|----------------12-15--------------------15-|-----12-15-------------------------------|
G|----------12-14-----------------------------|--14-------------------------------------|
D|----12-14-----------------------------------|-----------------------------------------|
A|--------------------------------------------|-----------------------------------------|
E|--------------------------------------------|-----------------------------------------|



2nd solo riff

E|---------------------------------------------|---------------------------------------------|
B|---------------------------------------------|---------------------------------------------|
G|--5-4-2------5-4-2------5-4-2------5-4-2-----|--5-4-2------5-4-2------5-4-2-----5-4-5-7~~--|
D|--------2~~--------2~~--------3~~--------3~~-|--------2~~--------2~~--------3~~------------|
A|---------------------------------------------|---------------------------------------------|
E|---------------------------------------------|---------------------------------------------|

E|---------------------------------------------|---------------------------------------------|
B|---------------------------------------------|---------------------------------------------|
G|--7-6-4------7-6-4------7-6-4------7-6-4-----|--7-6-4------7-6-4------7-6-4------7-6-7-9---|
D|--------4~~--------4~~--------5~~--------5~~-|--------4~~--------4~~--------5~~------------|
A|---------------------------------------------|---------------------------------------------|
E|---------------------------------------------|---------------------------------------------|

E|---------------------------------------------|---------------------------------------------|
B|---------------------------------------------|---------------------------------------------|
G|--9-8-6------9-8-6------9-8-6------9-8-6-----|--9-8-6------9-8-6------9-8-6------9-8-9-11--|
D|--------6~~--------6~~--------7~~--------7~~-|--------4~~--------4~~--------5~~------------|
A|---------------------------------------------|---------------------------------------------|
E|---------------------------------------------|---------------------------------------------|

E|---------------------|
B|--------12B^^--vv12--|
G|--11B^^--------------|
D|---------------------|
A|---------------------|
E|---------------------|



Verse

      Am          Fmaj        Am          Fmaj

E|----5------|----1------|----5------|----1---------------|
B|----5------|----1------|----5------|----1---------------|
G|----5------|----2------|----5------|----2---------------|
D|----7------|----3------|----7------|----3---------------|
A|----7------|----3------|----7------|----3---3-2-3-5~~---|
E|----5------|----1------|----5------|----1---------------|


      Am          Fmaj        Am          Fmaj

E|----5------|----1------|----5------|--------------------|
B|----5------|----1------|----5------|----6---------------|
G|----5------|----2------|----5------|----5----12b^^**~~--|
D|----7------|----3------|----7------|----3---------------|
A|----7------|----3------|----7------|----3---------------|
E|----5------|----1------|----5------|--------------------|



Chorus as Intro Riff x 2

E|---------------------------------------|----------------------------------|
B|---------------------------------------|----------------------------------|
G|---------------------------------------|----------------------------------|
D|-----5-7---5----5----------------------|-----5-7---5----5-----------------|
A|---------7--------7-----3---5----------|---------7--------7----3-5--------|
E|-------------------------------3---5---|---------------------------3---5--|


E|---------------------------------------|----------------------------------|
B|---------------------------------------|----------------------------------|
G|---------------------------------------|--------------------------5-2~~---|
D|-----5-7---5----5----------------------|-----5-7---5----5-----------------|
A|---------7--------7-----3---5----------|---------7--------7---3-5---------|
E|-------------------------------3---5---|----------------------------------|



Solo over Verse (key change)

E|----------|-----------------|-----------------------|---17b^^-17-15-17-19-19-22-19~~--|
B|---10b^^--|---12b^^---12----|---17b^^---7b^^-17-----|---------------------------------|
G|----------|-----------------|-----------------------|---------------------------------|
D|----------|-----------------|-----------------------|---------------------------------|
A|----------|-----------------|-----------------------|---------------------------------|
E|----------|-----------------|-----------------------|---------------------------------|



Riff over Verse (key change) x2

E|---------------------------------------|----------------------------------|
B|---------------------------------------|----------------------------------|
G|---------------------------------------|----------------------------------|
D|-----7-9---7----7----------------------|-----7-9---7----7-----------------|
A|---------9--------9-----5---7----------|---------9--------9----5-7--------|
E|-------------------------------5---7---|---------------------------5---7--|


E|---------------------------------------|----------------------------------|
B|---------------------------------------|----------------------------------|
G|---------------------------------------|---------------------------7---4--|
D|-----7-9---7----7----------------------|-----7-9---7----7-----------------|
A|---------9--------9-----5---7----------|---------9--------9----5-7--------|
E|-------------------------------5---7---|----------------------------------|



End Riff x2

E|----------------------------------------------------------------|
B|----------------------------------------------------------------|
G|----------------------------------------------------------------|
D|----------------------------------------------------------------|
A|---------5---5------5---5-7--------------5---5---7-5------------|
E|---0-5-7---7------7---7------------0-5-7---7---------7-0~~------|


E|----------------------------------------------------------------|--------|
B|----------------------------------------------------------------|--------|
G|----------------------------------------------------------------|----9\--|
D|-------------------------------------------------------2~~~~~---|----9\--|
A|---------5---5------5---5-7--------------5---5---7-5---2~~~~~---|----7\--|
E|---0-5-7---7------7---7------------0-5-7---7---------7-0~~~~~---|--------|


I'm pretty sure this is correct. If anyone has any corrections feel free to notify me.

My first tabbed song so please enjoy.
Добавлено: 21.11.2013
Другие материалы по этой песне:

Страница создана 28.03.2012
http://primanota.ru/kingdom-come/living-out-of-touch-chords.htm
Привет, Гость.
Предлагаем пройти революционный курс по гитаре.
Подарок от PrimaNota.Ru, забирай!