PrimaNota.ru - самый крупный в мире бесплатный архив песенных текстов, аккордов, табулатур и нот


Kingdom Come - Get It On - текст песни, таба, видео

Регистрация Запомнить меня
Войти через:  Facebook Google Twitter Vk Yandex Mail.ru

Kingdom Come - Get It On - текст песни, таба, видео

Печатать
Просмотров: 274
                              Get it on


                                                                      Lenny Wolf
Guitar 1


E||-------------------------|-------------------------|
B||-------------------------|-------------------------|
G||*-------------------2----|----------------------2--|
D||*--------2--5----2-------|--2--5----4--5h-4h-5-----|
A||---0--4------------------|-------------------------|
E||-------------------------|-------------------------|


                                                 2x
--------------------------|----------------------||-------------------------|
--------------------------|----------------------||-------------------------|
--------------------------|---------------------*||-------------------------|
--------2--------2--4--2--|--4r---2-------------*||--------2--------2--4----|
--3h-4-----3h-4-----------|----------------------||--3h-4-----3h-4----------|
--------------------------|----------3-----------||-------------------------|

---------------------|--------------------------|--------------------------|
---------------------|--------------------------|--------------------------|
---------------------|--------------------------|--------------------------|
--4r---2-------------|--2--x--x--2--x--x--2--x--|--x--3--x--x--3--3--x--x--|
---------------------|--0--x--x--0--x--x--0--x--|--x--0--x--x--0--0--x--x--|
----------3----------|--------------------------|--------------------------|

--------------------------|-------------------------|-------------------------|
--------------------------|-------------------------|-------------------------|
--------------------------|-------------------------|-------------------------|
--4--x--x--4--x--x--4--x--|--x--5--x--x--5----5--6--|--7/---x--2--x--x--2--x--|
--0--x--x--0--x--x--0--x--|--x--0--x--x--0----0--0--|--0----x--0--x--x--0--x--|
--------------------------|-------------------------|-------------------------|

--------------------------|--------------------------|-------------------------|
--------------------------|--------------------------|-------------------------|
--------------------------|--------------------------|-------------------------|
--x--3--x--x--3--3--x--x--|--4--x--x--4--x--x--4--x--|--x--5--x--x--5----5--6--|
--x--0--x--x--0--0--x--x--|--0--x--x--0--x--x--0--x--|--x--0--x--x--0----0--0--|
--------------------------|--------------------------|-------------------------|

|--------------------------|--------------------------|
|--------------------------|--------------------------|
|*-------------------------|--------------------------|
|*--7/---x--2--x--x--2--x--|--x--3--x--x--3--3--x--x--|
|---0----x--0--x--x--0--x--|--x--0--x--x--0--0--x--x--|
|--------------------------|--------------------------|


                                                     3x
--------------------------|--------------------------||
--------------------------|--------------------------||
--------------------------|-------------------------*||
--4--x--x--4--x--x--4--x--|--x--5--x--x--5----5--6--*||
--0--x--x--0--x--x--0--x--|--x--0--x--x--0----0--0---||
--------------------------|--------------------------||

-------------------------|-------------------------|--------------------------|
-------------------------|-------------------------|--------------------------|
*-------------------2----|----------------------2--|--------------------------|
*--------2--5----2-------|--2--5----4--5h-4h-5-----|--------2--------2--4--2--|
---0--4------------------|-------------------------|--3h-4-----3h-4-----------|
-------------------------|-------------------------|--------------------------|


                      2x
----------------------||-------------------------|---------------------|
----------------------||-------------------------|---------------------|
---------------------*||-------------------------|---------------------|
--4r---2-------------*||--------2--------2--4----|--4r---2-------------|
----------------------||--3h-4-----3h-4----------|---------------------|
----------3-----------||-------------------------|----------3----------|

--------------------------|--------------------------|
--------------------------|--------------------------|
--------------------------|--------------------------|
--2--x--x--2--x--x--2--x--|--x--3--x--x--3--3--x--x--|
--0--x--x--0--x--x--0--x--|--x--0--x--x--0--0--x--x--|
--------------------------|--------------------------|

--------------------------|-------------------------|
--------------------------|-------------------------|
--------------------------|-------------------------|
--4--x--x--4--x--x--4--x--|--x--5--x--x--5----5--6--|
--0--x--x--0--x--x--0--x--|--x--0--x--x--0----0--0--|
--------------------------|-------------------------|

|--------------------------|--------------------------|
|--------------------------|--------------------------|
|*-------------------------|--------------------------|
|*--7/---x--2--x--x--2--x--|--x--3--x--x--3--3--x--x--|
|---0----x--0--x--x--0--x--|--x--0--x--x--0--0--x--x--|
|--------------------------|--------------------------|


                                                     2x
--------------------------|--------------------------||
--------------------------|--------------------------||
--------------------------|-------------------------*||
--4--x--x--4--x--x--4--x--|--x--5--x--x--5----5--6--*||
--0--x--x--0--x--x--0--x--|--x--0--x--x--0----0--0---||
--------------------------|--------------------------||

-------------------------|-------------------------|--------------------------|
-------------------------|-------------------------|--------------------------|
*-------------------2----|----------------------2--|--------------------------|
*--------2--5----2-------|--2--5----4--5h-4h-5-----|--------2--------2--4--2--|
---0--4------------------|-------------------------|--3h-4-----3h-4-----------|
-------------------------|-------------------------|--------------------------|


                      2x
----------------------||-------------------------|---------------------|
----------------------||-------------------------|---------------------|
---------------------*||-------------------------|---------------------|
--4r---2-------------*||--------2--------2--4----|--4r---2-------------|
----------------------||--3h-4-----3h-4----------|---------------------|
----------3-----------||-------------------------|----------3----------|

---------------------|------------------|---------------------|
---------3------1----|------------------|---------3-----------|
--0------2------0----|------------------|--0------2------2----|
--0------0------x----|------------------|--0------0------2----|
--x-------------3----|------------------|--x-------------0----|
--3------------------|------------------|--3------------------|

------------------|---------------------|------------------|
------------------|---------3------1----|------------------|
------------------|--0------2------0----|------------------|
------------------|--0------0------x----|------------------|
------------------|--x-------------3----|------------------|
------------------|--3------------------|------------------|

-------------------------|---------------------|---------------------|
-------------------------|---------------------|---------3------1----|
-------------------------|------0--1--2--------|--0------2------0----|
--3--2--0--2--0----------|---------------------|--0------0------x----|
-----------------3--0----|---------------------|--x-------------3----|
-------------------------|---------------------|--3------------------|

------------------|---------------------|------------------|
------------------|---------3-----------|------------------|
------------------|--0------2------2----|------------------|
------------------|--0------0------2----|------------------|
------------------|--x-------------0----|------------------|
------------------|--3------------------|------------------|

---------------------|------------------|-------------------------|
---------3------1----|------------------|-------------------------|
--0------2------0----|------------------|-------------------------|
--0------0------x----|------------------|-------------------------|
--x-------------3----|------------------|-----------------2-------|
--3------------------|------------------|--5--3--0--2--3-----0----|

------------------|------------------|------------------|------------------|
------------------|------------------|------------------|------------------|
------------------|------------------|------------------|------------------|
------------------|------------------|------------------|------------------|
------------------|------------------|------------------|------------------|
------------------|------------------|------------------|------------------|

--------------------------|--------------------------|
--------------------------|--------------------------|
--------------------------|--------------------------|
--2--x--x--2--x--x--2--x--|--x--3--x--x--3--3--x--x--|
--0--x--x--0--x--x--0--x--|--x--0--x--x--0--0--x--x--|
--------------------------|--------------------------|

--------------------------|-------------------------|-------------------------|
--------------------------|-------------------------|-------------------------|
--------------------------|-------------------------|-------------------------|
--4--x--x--4--x--x--4--x--|--x--5--x--x--5----5--6--|--7/---x--2--x--x--2--x--|
--0--x--x--0--x--x--0--x--|--x--0--x--x--0----0--0--|--0----x--0--x--x--0--x--|
--------------------------|-------------------------|-------------------------|

--------------------------|--------------------------|-------------------------|
--------------------------|--------------------------|-------------------------|
--------------------------|--------------------------|-------------------------|
--x--3--x--x--3--3--x--x--|--4--x--x--4--x--x--4--x--|--x--5--x--x--5----5--6--|
--x--0--x--x--0--0--x--x--|--0--x--x--0--x--x--0--x--|--x--0--x--x--0----0--0--|
--------------------------|--------------------------|-------------------------|

|--------------------------|--------------------------|
|--------------------------|--------------------------|
|*-------------------------|--------------------------|
|*--7/---x--2--x--x--2--x--|--x--3--x--x--3--3--x--x--|
|---0----x--0--x--x--0--x--|--x--0--x--x--0--0--x--x--|
|--------------------------|--------------------------|


                                                     3x
--------------------------|--------------------------||
--------------------------|--------------------------||
--------------------------|-------------------------*||
--4--x--x--4--x--x--4--x--|--x--5--x--x--5----5--6--*||
--0--x--x--0--x--x--0--x--|--x--0--x--x--0----0--0---||
--------------------------|--------------------------||

-------------------------|-------------------------|--------------------------|
-------------------------|-------------------------|--------------------------|
*-------------------2----|----------------------2--|--------------------------|
*--------2--5----2-------|--2--5----4--5h-4h-5-----|--------2--------2--4--2--|
---0--4------------------|-------------------------|--3h-4-----3h-4-----------|
-------------------------|-------------------------|--------------------------|

----------------------||-------------------------|---------------------||
----------------------||-------------------------|---------------------||
---------------------*||-------------------------|---------------------||
--4r---2-------------*||--------2--------2--4----|--4r---2-------------||
----------------------||--3h-4-----3h-4----------|---------------------||
----------3-----------||-------------------------|----------3----------||
Добавлено: 29.05.2012
Другие материалы по этой песне:

Страница создана 29.05.2012
http://primanota.ru/kingdom-come/get-it-on-chords.htm
Привет, Гость.
Предлагаем пройти революционный курс по гитаре.
Подарок от PrimaNota.Ru, забирай!