PrimaNota.ru - самый крупный в мире бесплатный архив песенных текстов, аккордов, табулатур и нот


King - I Cringed I Died I Felt Hot - бас-таба, видео

Регистрация Запомнить меня
Войти через:  Facebook Google Twitter Vk Yandex Mail.ru

King - I Cringed I Died I Felt Hot - бас-таба, видео

Печатать
Просмотров: 105
Tabbed by: bassm99
E-mail: alanmatthews1966@yahoo.co.uk

Tuning: E, A, D, G

"I Cringed, I Died, I Felt Hot" from the album "Bitter Sweet" (1985)
Written by P.King/M.Roberts

Intro: (Play 3 Times) 

G|----------------------------------------------------------------------------|
D|----------------------------------------------------------------------------|
A|-----------------3333-33-33-33--5555-55-55-55-------------------------------|
E|--5555-55-55-55--------------------------------1111--3333-------------------|

Verse: (Play 4 Times)

G|----------------------------------------------------------------------------|
D|----------------------------------------------------------------------------|
A|-----------------3333-33-33-33--5555-55-55-55-------------------------------|
E|--5555-55-55-55--------------------------------1111--3333-------------------|

Chorus: (Play Twice)

Repeat Intro: (Play Twice)

Repeat Verse:

Repeat Chorus:

G|----------------------------------------------------------------------------|
D|----------------------------------------------------------------------------|
A|-----------------3333-33-33-33--5555-55-55-55-------------------------------|
E|--5555-55-55-55--------------------------------1111--3333-------------------|

Bridge:

G|----------------------------------------------------------------------------|
D|----------------------------------------------------------------------------|
A|-------3-3--5-5-------------------------------------------------------------|
E|--5-5------------1-1--3-3-(x2)----3/----------------------------------------|

Repeat Chorus:

Bass Stops: 3:02 - 3:19

Repeat Chorus:

Ending: (Repeat to fade out 3:37 - 4:56)

G|----------------------------------------------------------------------------|
D|----------------------------------------------------------------------------|
A|----------------------------------------------------------------------------|
E|--5555-55-55-55-------------------------------------------------------------|

During the ending there are some minor variations played. Something for you to
play around with.
Добавлено: 30.07.2015
Вам также может быть интересно:
Другие материалы по этой песне:
  • Аккорды и текст

Страница создана 30.07.2015
http://primanota.ru/king/i-cringed-i-died-i-felt-hot-chords.htm
Привет, Гость.
Предлагаем пройти революционный курс по гитаре.
Подарок от PrimaNota.Ru, забирай!