PrimaNota.ru - самый крупный в мире бесплатный архив песенных текстов, аккордов, табулатур и нот


King Tuff - Eyes Of The Muse - таба, видео

Регистрация Запомнить меня
Войти через:  Facebook Google Twitter Vk Yandex Mail.ru

King Tuff - Eyes Of The Muse - таба, видео

Печатать
Просмотров: 94
EYES OF THE MUSE
by King Tuff


tablature by Lavaxtris



NOTE: Tune guitar to DADF#AD. 

I can't help you with rhythms, but this is basically what he plays during his live shows.


Intro
|----------|
|-7^9-7----|
|-7^8-7----|
|-7-7-7----|
|----------|
|----------|


|------------------------------|
|------------------------------|
|-----3/5-3-3b4-3b4-3b4-3------|
|-0-4---------------------4----|
|------------------------------|
|------------------------------|

Verse
|-0-5-|-------------------------------|
|-0-5-|-------------------------------|
|-0-5-|-----3-5-3-3b4-3b4-3b4--3------|
|-----|-0-4----------------------4----|
|-----|-------------------------------|
|-----|-------------------------------|


|-3---5-4------5-5----|
|-3---5-5------5-5----|
|-3---3-3------5-4----|
|---------------------|
|---------------------|
|---------------------|


|--------------------|
|-7^9-7--10^12-10----|
|-7^8-7--10^11-10----|
|-7-7-7--10-10-10----|
|--------------------|
|--------------------|

most of this stuff is played twice in a row

|--------------------|
|--------------------|
|--------------------|
|---------0----------|
|-----0^2---2^0------|
|-0^3-----------0----|


|-------------10-------------------------------------|
|-------10-12----12-10-------------------------------|
|-10-11----------------11-10-11-10----10-------------|
|----------------------------------12----12-10-12----|
|----------------------------------------------------|
|----------------------------------------------------|


|------------------------|
|------------------------|
|------------------------|
|------------------------|
|-----0-2^0-2^0-2^0------|
|-0^3---------------3----|


|-----------------------|
|-----------------------|
|-7-8-7-5--2^3-3^2-0----|
|-5-5-5-5--0-0-0-0-0----|
|-5-5-5-5--0-0-0-0-0----|
|-5-5-5-5--0-0-0-0-0----|


|-3-5-0-------------------------|
|-3-5-0--14b15-14-12------------|
|-3-5-0--------------12---------|
|-3-5-0-----------------12------|
|-3-5-0-------------------------|
|-3-5-0-------------------------|

|---5-5-----------|
|---5-5-----------|
|---5-4-----------|
|-----------------|
|-----------------|
|-----------------|

b = bend to fret
^ = hammer on/pull off
/ = slide

Добавлено: 28.04.2015
Другие материалы по этой песне:
  • Аккорды и текст

Страница создана 28.04.2015
http://primanota.ru/king-tuff/eyes-of-muse-chords.htm
Привет, Гость.
Предлагаем пройти революционный курс по гитаре.
Подарок от PrimaNota.Ru, забирай!