PrimaNota.ru - самый крупный в мире бесплатный архив песенных текстов, аккордов, табулатур и нот


King Tuff - Beautiful Thing - аккорды и текст, видео

Регистрация Запомнить меня
Войти через:  Facebook Google Twitter Vk Yandex Mail.ru

King Tuff - Beautiful Thing - аккорды и текст, видео

Печатать
Просмотров: 160
Beautiful Thing
King Tuff
Intro:

A                                                         F#m
|--------------------|-------------------|--------------------|--------------------|
|--------------------|-------------------|--------------------|--------------------|
|----------2-2-------|-------------------|----------2-2-4-2---|----2---------------|
|--2-2-4---x-x-4-2---|-------------------|--2-2-4---x-x-x-4---|----4---------------|
|--0-0-0-0-0-0-0-0---|---0-0-0-0-0-0-0---|--0-0-0-0-0-0-0-x---|----x---------------|
|--------------------|-------------------|----------------2---|--2-2-2-2-2-2-2-----|

D                  F#m                      D                    E
|--------------------|-------------------|------------------0-|--0-----------------|
|--3---3-2-----------|-------------------|--3---3-2---------0-|--0-----------------|
|--2---2-2---4-2---2-|----2--------------|--2---2-2---4-2---1-|--1-----------------|
|--0-0-0-0-0-0-0-0-4-|----4--------------|--0-0-0-0-0-0-0-0-2-|--2-----------------|
|------------------x-|----x--------------|------------------2-|--2-----------------|
|------------------2-|--2-2-2-2-2-2-2----|------------------0-|--0-----------------|

You can also play just the A anf F#m chords whithout the muted notes if that's what you're into.

When it says D *, play this twice:

|--------------------|
|--3-3-2-2-3-3-2-2---|
|--2-2-2-2-2-2-2-2---|
|--0-0-0-0-0-0-0-0---|
|--------------------|
|--------------------|

Verse 1:

A                       F#m E    D *
Breaking windows with a baseball bat
A               F#m  E    D *
Turning all the good boys bad
A
Burn your little flame
A                          F#m
'Till everybody knows your name
D                F#m                         
C'mon Baby be my beautiful thing
D
Be my beautiful
E
Be my beautiful
E
Be my beautiful

Verse 2:

A                  F#m     E            D *
Shock me, Rock me, Show me what you can do
A                       F#m      E           D *
Lightning bolt me, High volt me, give me the juice
A
Burn your little flame
A                          F#m
'Till everybody knows your name
D                F#m                         
C'mon Baby be my beautiful thing
D
Be my beautiful
E
Be my beautiful
E
Be my beautiful

Solo: The beginning goes something like this:

A                                                        F#m
|--------------------|--------------------|-----------7--------|----------------7-9-|
|-----7--10--7-------|------------------7-|-----7--10----10----|-------------10-----|
|--9-----------9-----|--------------6-9---|--9-----------------|--------------------|
|--------------------|------------9-------|--------------------|--------------------|
|--------------------|--------------------|--------------------|--------------------|
|--------------------|--------------------|--------------------|--------------------|

D                 F#m                      D                     E
|--9b10--9--7--------|----------------7-9-|--9b10--9--7--------|------------------------------------------...
|-------------10--7--|--------------------|--------------------|-10h12p10\9h10p9\7h9p7\5h7p5\3h5p3\2h3p2\-...
|--------------------|--------------------|--------------------|------------------------------------------...
|--------------------|--------------------|--------------------|------------------------------------------...
|--------------------|--------------------|--------------------|------------------------------------------...
|--------------------|--------------------|--------------------|------------------------------------------...

Verse 3:

A               F#m   E  D *
Chewing gum and cheap tattoos
A                                F#m      E        D *
Show me all the innocence you're trying so hard to lose
A
Burn your little flame
A                          F#m
'Till everybody knows your name
D                F#m                         
C'mon Baby be my beautiful thing
D
Be my beautiful
E
Be my beautiful
E
Be my beautiful
E
Be my beautiful
Be my beautiful

A          F#m       E
Hey, yeah! Beautiful thing!                |
D                          E               |-- x4
Forever and ever won't you be my beautiful |

Intro x1
Добавлено: 28.04.2015
Другие материалы по этой песне:
  • Аккорды и текст

Страница создана 28.04.2015
http://primanota.ru/king-tuff/beautiful-thing-chords.htm
Привет, Гость.
Предлагаем пройти революционный курс по гитаре.
Подарок от PrimaNota.Ru, забирай!