PrimaNota.ru - самый крупный в мире бесплатный архив песенных текстов, аккордов, табулатур и нот


King Tuff - Alone And Stoned - аккорды и текст, видео

Регистрация Запомнить меня
Войти через:  Facebook Google Twitter Vk Yandex Mail.ru

King Tuff - Alone And Stoned - аккорды и текст, видео

Печатать
Просмотров: 29
Alone And Stoned
King Tuff
Riff:
e|--------------------------------------------------------------------|
B|--------------------------------------------------------------------|
G|--------------------------------------------------------------------|
D|----------------12--11--9-------------------------12-11-9-----------|
A|(9)------------------------12-12--9------------------------12-12----|
E|-----10--12--------------------------12--10--12---------------------|

e|--------------------------------------------------------------------|
B|--------------------------------------------------------------------|
G|--------------------------------------------------------------------|
D|------------12-11-9---------------------12-11-9---------------------|
A|-10-9-10-12---------12-12----10-9-10-12----------12-12--------------|
E|--------------------------------------------------------------------|

D
There's nothing better than alone and stoned
                            G
listenin' to music on your headphones
D                                               G       A
there's nothing better than alone and stoned

D
All of my friends are all alone and stoned
                                G
All of my friends are on their headphones
D                                               G       A
All of my friends are all alone and stoned

D
Stare at all the shit in your bedroom
G
and take a walk on the moon
D                               G       A
No one can see you when you're alone, alone

D
Why's everybody want to be alone
                        G
Why's everybody want to stay at home
D                                               G       A
Why's everybody want to be alone

D
Stare at all the shit in your bedroom
G
and take a walk on the moon
D                               G       A
No one can see you when you're alone, alone

D
All of the world is all alone and stoned
                             G
We Are The World is wearing headphones
D                                               G       A
All of the world is all alone and stoned

D
Stare at all the shit in your bedroom
G
and take a walk on the moon
D                               G       A
No one can see you when you're alone

D
Stare at all the shit in your bedroom
G
and take a walk on the moon
D                               G       A
No one can see you when you're alone, alone


Why's everybody all alone and stoned?

Добавлено: 17.09.2015
Другие материалы по этой песне:
  • Аккорды и текст

Страница создана 17.09.2015
http://primanota.ru/king-tuff/alone-and-stoned-chords.htm
Привет, Гость.
Предлагаем пройти революционный курс по гитаре.
Подарок от PrimaNota.Ru, забирай!