PrimaNota.ru - самый крупный в мире бесплатный архив песенных текстов, аккордов, табулатур и нот


King Prawn - Day In Day Out - бас-таба, видео

Регистрация Запомнить меня
Войти через:  Facebook Google Twitter Vk Yandex Mail.ru

King Prawn - Day In Day Out - бас-таба, видео

Печатать
Просмотров: 128
Уроки эстрадного вокала в Санкт-Петербурге
Day In, Day Out - King Prawn

Chorus x2
G|------------|------------------|
D|------------|---7--------5-2---|
A|-5-5---3-3--|-5---8-5--3-----3-|
E|------------|------------------|

Verse x7
G|------------------|
D|---7--------5-2---|
A|-5---8-5--3-----3-|
E|------------------|

Chorus x2
Verse x7
Chorus x2

Bridge                
G|--------------------|------------------------|
D|----7-7-------5---5-|----7-7-----------------|
A|-5---5--5---3---3---|-5---5--5---------3-3-3-|
E|--------------------|------------5-5-5-------|

Bridge pt.2        x8 |
G|--------------------|
D|----7-7-------5---5-|
A|-5---5--5---3---3---|
E|--------------------|

Bridge Pt.3      x7 |
G|------------------|------------------|
D|---7--------5-2---|---7--------------|
A|-5---8-5--3-----3-|-5---8-5--3-------|
E|------------------|------------------|

Verse x10

End x4
G|------------|
D|------------|
A|-5-5---3-3--|
E|------------|

Add my Myspace:
Myspace.com/Jake_bums_sheep_x
I'll add you fer shure and we can bum over the interweb lolz
Добавлено: 13.05.2012
Другие материалы по этой песне:
  • Аккорды и текст

Страница создана 13.05.2012
http://primanota.ru/king-prawn/day-in-day-out-chords.htm
Привет, Гость.
Предлагаем пройти революционный курс по гитаре.
Подарок от PrimaNota.Ru, забирай!