PrimaNota.ru - самый крупный в мире бесплатный архив песенных текстов, аккордов, табулатур и нот


King Of The North - Into Your Eyes - таба, видео

Регистрация Запомнить меня
Войти через:  Facebook Google Twitter Vk Yandex Mail.ru

King Of The North - Into Your Eyes - таба, видео

Печатать
Просмотров: 63
-------------------------------------------------------------------------------
                             INTO YOUR EYES - KING OF THE NORTH
-------------------------------------------------------------------------------
Tabbed by: TheOffspring24
E-mail:

King Of The North are a two piece (guitar and drums) Australian rock band from
Melbourne. Having released their self titled EP in mid 2013 and their debut album "Sound the
Underground" in late 2013, they are yet to make it big, but their awesome live 
performances and ability to sound like a four or five piece band are bound to make them burst out into
the mainstream.

Tuning: Drop D (D A D G B e)

INTRO (Play for the amount of bars necessary.)
E|-----------------------------------------------------------------------------|
B|-----------------------------------------------------------------------------|
G|-77777777--------------------------------------------------------------------|
D|-77777777--------------------------------------------------------------------|
A|-55555555--------------------------------------------------------------------|
D|-----------------------------------------------------------------------------|
|--PALM MUTE-------------------------------------------------------------------|

MAIN RIFF (Play as many times as necessary.)
e|------------------------------|---------------|
B|------------------------------|---------------|
G|------------------------------|--101010-9999--|
D|------------------------------|--101010-9999--|
A|-3-555-3-5----------3-0-3-5---|---8-8-8-7777--|
D|------------5-0--0------------|---------------|
                                   ^ Finish with this

VERSE (This applies to all verses.)
e|------------------------------------------------------|
B|------------------------------------------------------|
G|-5555-5555-55-5555-5555-55-7777-7777-77-7777-7777-77--|
D|-5555-5555-55-5555-5555-55-7777-7777-77-7777-7777-77--|
A|-3333-3333-33-3333-3333-33-5555-5555-55-5555-5555-55--|
D|------------------------------------------------------|

CHORUS (Same as main riff)
e|--------------------------------|-----------------|
B|--------------------------------|-----------------|
G|--------------------------------|10101010---------|
D|--------------------------------|10101010--/5555--|
A|-3-555-3-5----------3-0-3-5-----|-8-8-8-8--/5555--|
D|------------5-0--0--------------|----------/5555--|
  "Found my way..."                 "Fallen into your eyes."


Repeat MAIN RIFF and play VERSE

BRIDGE (Listen to the song and play each chord for the number of times necessary.)
e|------------------------------------------------------------------|
B|------------------------------------------------------------------|
G|------------------------------------------------------------------|
D|-6--3--10--------------------6--5--3------------------10\5--6--3--|
A|-6--3--10--------------------6--5--3------------------10\5--6--3--|
D|-6--3--10--------------------6--5--3------------------10\5--6--3--|
 "One glance can stop time."  "You're livin while..."

-Bass break-

SOLO (Uses some effect, I use a Wah pedal to enhance the sound.)
e|--------------------------------15b-13-10-15b-13-10----15b-21b--|
B|----10-13-------10-13-10-13-13b---------------------------------|
G|-12-------10-12-------------------------------------------------|
D|----------------------------------------------------------------|
A|----------------------------------------------------------------|
D|----------------------------------------------------------------|
                                                      |-Tremolo pick-(really fast)-|

Repeat CHORUS and finish by playing MAIN RIFF for however many times necessary.


************************************

| /   slide up
| \   slide down
| h   hammer-on
| p   pull-off
| ~   vibrato
| +   harmonic
| x   Mute note
| b   Bend
| pb  Pre-bend
| br  Bend release
| pbr Pre-bend release
| brb Bend release bend

************************************
Добавлено: 31.12.2015
Другие материалы по этой песне:
  • Аккорды и текст

Страница создана 31.12.2015
http://primanota.ru/king-of-north/into-your-eyes-chords.htm
Привет, Гость.
Предлагаем пройти революционный курс по гитаре.
Подарок от PrimaNota.Ru, забирай!