PrimaNota.ru - самый крупный в мире бесплатный архив песенных текстов, аккордов, табулатур и нот


King The Native - Painstaker - таба, видео

Регистрация Запомнить меня
Войти через:  Facebook Google Twitter Vk Yandex Mail.ru

King The Native - Painstaker - таба, видео

Печатать
Просмотров: 124
Intro
e|-------------------------------------------------------------|
B|-------------------------------------------------------------|
G|---7---7---7---7---7---7---7---7---7---7---7---7---7---7---7-| x1
D|-------------------------------------------------------------|
A|-------------------------------------------------------------|
E|-6---6---6---6---6---6---6---6---6---6---6---6---6---6---6---|

e|---------------------------------|
B|---------------------------------|
G|---7---7---7---7---3---3---3---3-| x8
D|---------------------------------|
A|---------------------------------|
E|-6---6---6---6---3---3---3---3---|

e|-6--6--6--6---1-1-1---3-3-3-|
B|-6--6--6--6---1-1-1---3-3-3-|
G|-7--7--7--7---2-2-2---3-3-3-| x4
D|-8--8--8--8---3-3-3---5-5-5-|
A|-8--8--8--8---3-3-3---5-5-5-|
E|-6--6--6--6---1-1-1---3-3-0-|


Verse 1
e|-----------------------------------------------------1-1-----|
B|-----------------------------------------------------1-1-----|
G|-7------2--------7---7---7---7---7---7---7---0-------3-3-----| x1
D|-8------3--------------------------------------------3-3-----|
A|-6------3--------------------------------------------3-3-----|
E|-6------1------6---6---6---6---6---6---6---6---------1-1-----|

e|---------------------------------------|
B|---------------------------------------|
G|-7-7----7-7----7777-2-2----2-2----2222-| x2
D|-8-8----8-8----5555-3-3----3-3----3333-|
A|-5-5----5-5----5555-3-3----3-3----3333-|
E|-6-6----6-6----6666-1-1----1-1----1111-|


Prechorus
e|--------------------------------|
B|--------------------------------|
G|-----7---8---7-7------7---8---7-| x1
D|---8----------------8-----------|
A|-6-----6---6------6-----6---6---|
E|--------------------------------|


Chorus
e|-------------------------------------------------------------|
B|-------------------------------------------------------------|
G|-7-7-7-7-3-3-2-2-3-3-3-3-2-2-2-2-7---3-3-2-2-3-3-3-3-2-2-2-2-| x1
D|-8-8-8-8-5-5-3-3-5-5-5-5-3-3-3-3-8---5-5-3-3-5-5-5-5-3-3-3-3-|
A|-8-8-8-8-5-5-3-3-5-5-5-5-3-3-3-3-8---5-5-3-3-5-5-5-5-3-3-3-3-|
E|-6-6-6-6-3-3-1-1-3-3-3-3-1-1-1-1-6---3-3-1-1-3-3-3-3-1-1-1-1-|

e|-------------------------------------------------------------------|
B|-------------------------------------------------------------------|
G|-7-7-7-7-3-3-2-2-7-7-7-7-3-3-2-2-7-7-7-7-3-3-2-2-7-7-7-7--777--777-| x1
D|-8-8-8-8-5-5-3-3-8-8-8-8-5-5-3-3-8-8-8-8-5-5-3-3-8-8-8-8--888--888-|
A|-8-8-8-8-5-5-3-3-8-8-8-8-5-5-3-3-8-8-8-8-5-5-3-3-8-8-8-8--888--888-|
E|-6-6-6-6-3-3-1-1-6-6-6-6-3-3-1-1-6-6-6-6-3-3-1-1-6-6-6-6--666--666-|


Verse 2
e|---------------------------------------|
B|---------------------------------------|
G|-7-7----7-7----7777-2-2----2-2----2222-| x2
D|-8-8----8-8----5555-3-3----3-3----3333-|
A|-5-5----5-5----5555-3-3----3-3----3333-|
E|-6-6----6-6----6666-1-1----1-1----1111-|

e|-----------|
B|-----------|
G|-7----7--2-| x1
D|-8----8--3-|
A|-6----6--3-|
E|-----------|

e|---------------------------------------|
B|---------------------------------------|
G|-7-7----7-7----7777-2-2----2-2----2222-| x2
D|-8-8----8-8----5555-3-3----3-3----3333-|
A|-5-5----5-5----5555-3-3----3-3----3333-|
E|-6-6----6-6----6666-1-1----1-1----1111-|


Prechorus
e|--------------------------------|
B|--------------------------------|
G|-----7---8---7-7------7---8---7-| x1
D|---8----------------8-----------|
A|-6-----6---6------6-----6---6---|
E|--------------------------------|


Chorus
e|------------------------------------------------------------|
B|------------------------------------------------------------|
G|-7-7-7-7-3-3-2-2-3-3-3-3-2-2-2-2-7--3-3-2-2-3-3-3-3-2-2-2-2-| x1
D|-8-8-8-8-5-5-3-3-5-5-5-5-3-3-3-3-8--5-5-3-3-5-5-5-5-3-3-3-3-|
A|-8-8-8-8-5-5-3-3-5-5-5-5-3-3-3-3-8--5-5-3-3-5-5-5-5-3-3-3-3-|
E|-6-6-6-6-3-3-1-1-3-3-3-3-1-1-1-1-6--3-3-1-1-3-3-3-3-1-1-1-1-|

e|-------------------------------------------------------------------|
B|-------------------------------------------------------------------|
G|-7-7-7-7-3-3-2-2-7-7-7-7-3-3-2-2-7-7-7-7-3-3-2-2-7-7-7-7--777--777-| x1
D|-8-8-8-8-5-5-3-3-8-8-8-8-5-5-3-3-8-8-8-8-5-5-3-3-8-8-8-8--888--888-|
A|-8-8-8-8-5-5-3-3-8-8-8-8-5-5-3-3-8-8-8-8-5-5-3-3-8-8-8-8--888--888-|
E|-6-6-6-6-3-3-1-1-6-6-6-6-3-3-1-1-6-6-6-6-3-3-1-1-6-6-6-6--666--666-|


Bridge
e|---------------------------------------------------|
B|---------------------------------------------------|
G|-7-7---7-7---7777--3-3-3-3-7-7-7-7-2-2-2-2-2-2-2-2-| x6
D|-8-8---8-8---8888--5-5-5-5-8-8-8-8-3-3-3-3-3-3-3-3-|
A|-6-6---6-6---6666--5-5-5-5-8-8-8-8-3-3-3-3-3-3-3-3-|
E|-------------------3-3-3-3-6-6-6-6-1-1-1-1-1-1-1-1-|

e|------------------------------------------|
B|------------------------------------------|
G|-7----3--2--3----2----7----3--2--3----2-2-| x1
D|--------------------------------------3-3-|
A|--------------------------------------3-3-|
E|-6----3--1--3----1----6----3--1--3----1-1-|


Chorus
e|-------------------------------------------------------------------|
B|-------------------------------------------------------------------|
G|-7-7-7-7-3-3-2-2-7-7-7-7-3-3-2-2-7-7-7-7-3-3-2-2-7-7-7-7--777--777-| x1
D|-8-8-8-8-5-5-3-3-8-8-8-8-5-5-3-3-8-8-8-8-5-5-3-3-8-8-8-8--888--888-|
A|-8-8-8-8-5-5-3-3-8-8-8-8-5-5-3-3-8-8-8-8-5-5-3-3-8-8-8-8--888--888-|
E|-6-6-6-6-3-3-1-1-6-6-6-6-3-3-1-1-6-6-6-6-3-3-1-1-6-6-6-6--666--666-|
Добавлено: 01.07.2015
Другие материалы по этой песне:
  • Аккорды и текст

Страница создана 01.07.2015
http://primanota.ru/king-native/painstaker-chords.htm
Привет, Гость.
Предлагаем пройти революционный курс по гитаре.
Подарок от PrimaNota.Ru, забирай!