PrimaNota.ru - самый крупный в мире бесплатный архив песенных текстов, аккордов, табулатур и нот


King Missile - Why Are We Trapped - бас-таба, видео

Регистрация Запомнить меня
Войти через:  Facebook Google Twitter Vk Yandex Mail.ru

King Missile - Why Are We Trapped - бас-таба, видео

Печатать
Просмотров: 120
Main Riff:
G:--------------|
D:-----777------|
A:00-7----7-----|
E:--------------|

Verse:
G:-------------|
D:-------------|
A:-------------|
E:55-3-5p3h5p3-|

Chorus
G:------------------------|
D:------------------------|
A:0-5-7-88888888-33333333-|
E:------------------------|

G:------------------------------------------------|
D:-----------------------------------------777-7--|
A:0-5-7-8888-3333-5--0-3-5-7-88888-5555-------7-7-|
E:--------------------------------------55--------|

G:--------------------|
D:--------------------|
A:8888-3333-5555------|
E:---------------5555-|

Interlude:
G:-------------------------|
D:-------------------------|
A:-------------------------|
E:5~---5~----5-3--5~---5-7-|

During Guitar Solo:
G:-----
D:-----
A:--7-7
E:00-0-

G:--------------|
D:--------------|
A:--------5-7-8-|
E:0-2-3-5-------|

End Of Last Chorus:
G:---------------------------------------------10-9-7-|
D:-----------------------------------------777--------|
A:0-5-7-8888-3333-5--0-3-5-7-88888-5555---------------|
E:--------------------------------------55------------|

G:---%%--%%--%%---|
D:---%%--%%--%%---|
A:-88%%33%%55%%---|
E:---%%--%%--%%55-|

Ending:
variations of
G:-------------|
D:-------------|
A:55-3-5p3h5p3-|
E:-------------|
Добавлено: 13.06.2012
Другие материалы по этой песне:
  • Аккорды и текст

Страница создана 13.06.2012
http://primanota.ru/king-missile/why-are-we-trapped-chords.htm
Привет, Гость.
Предлагаем пройти революционный курс по гитаре.
Подарок от PrimaNota.Ru, забирай!