PrimaNota.ru - самый крупный в мире бесплатный архив песенных текстов, аккордов, табулатур и нот


King Krule - Out Getting Ribs - аккорды и текст, таба, бас-таба, видео

Регистрация Запомнить меня
Войти через:  Facebook Google Twitter Vk Yandex Mail.ru

King Krule - Out Getting Ribs - аккорды и текст, таба, бас-таба, видео

Печатать
Просмотров: 215
Out Getting Ribs
King Krule
HEY! This is my first tab and I've done it by ear so its pretty likely that I've made 
some mistakes.
I made this because I saw two other tabs and one didn't sound right to me and the other 
I had to
re-tune my guitar and I though of this instead. I've only got little parts figured out 
but if I am
able to get more done I will add it
in. :D

Bass in intro
e-----------------------------------------------------|
B-----------------------------------------------------|
G-----------------------------------------------------|
D-----------------------------------------------------|
A-----------------------------------------------------|
E--5--5-4--4-0----------------------------------------|

Really High Feature
e--19--14--12--------14--12--10---------10------------|
B-------------12--12-------------12--12----12---------|
G----------------------------------------------11-----|
D-----------------------------------------------------|
A-----------------------------------------------------|
E-----------------------------------------------------|

Triplet that repeats throughout the song*
e-----------------------------------------------------|
B---10-12---10-12-----10-----10--12-------------------|
G-11-----11--------11-----11--------11----------------|
D-----------------------------------------------------|
A-----------------------------------------------------|
E-----------------------------------------------------|

*throughout the song this plays in the background but it always repeats from the second 
note (fret 10 on B)
Добавлено: 24.05.2015
Другие материалы по этой песне:
  • Аккорды и текст

Страница создана 02.06.2013
http://primanota.ru/king-krule/out-getting-ribs-chords.htm
Привет, Гость.
Предлагаем пройти революционный курс по гитаре.
Подарок от PrimaNota.Ru, забирай!