PrimaNota.ru - самый крупный в мире бесплатный архив песенных текстов, аккордов, табулатур и нот


King Gizzard And The Lizard Wizard - Satan Speeds Up - аккорды и текст, видео

Регистрация Запомнить меня
Войти через:  Facebook Google Twitter Vk Yandex Mail.ru

King Gizzard And The Lizard Wizard - Satan Speeds Up - аккорды и текст, видео

Печатать
Просмотров: 99
Satan Speeds Up
King Gizzard And The Lizard Wizard
King Gizzard & The Lizard Wizzard - Satan Speeds Up
song: https://www.youtube.com/watch?v=TmV7Cmv8QXg
note 1: the tuning is a half step down
note 2: this riff is played by multiple guitars. This tab is meant to indicate the main lines.

MAIN RIFF (play twice)
e|------------------------------------------|
B|------------------------------------------|
G|------------------------------------------|
D|------------------------------------------|
A|------------------------------5-----------|
E|-0-----0-2-3--5--3h5p3-2--0---5-----------|

e|------------------------------------------|
B|------------------------------------------|
G|------------------------------------------|
D|------------------------------------------|
A|------------------------------5-----------|
E|-0-----0-2-3--5--3h5p3-2--0---5-----------|

e|------------------------------------------|
B|------------------------------------------|
G|------------------------------------------|
D|------------------------------------------|
A|-0-----0-2-3--5--3h5p3-2--0---5-----------|
E|------------------------------5-----------|

e|------------------------------------------|
B|------------------------------------------|
G|------------------------------------------|
D|------------------------------------------|
A|------------------------------5-----------|
E|-0-----0-2-3--5--3h5p3-2--0---5-----------|

e|------------------------------------------|
B|------------------------------------------|
G|------------------------------------------|
D|------------------------------------------|
A|-7---5-----------7---5--------------------|
E|------------------------------------------| 

VERSE 1
Eb              Eb7M  
  You brought us two
             Eb7       Ab
Your gift of gene-  rocity 
            Ab     
And all our silly games
      Dm7dim5      Eb
Wreak havoc on your soils

PRE-CHORUS
       Eb   Db
When I stop to
Eb    Db
Think of
Eb  Db
All that

MAIN RIFF (only first line)
e|------------------------------------------|
B|------------------------------------------|
G|------------------------------------------|
D|------------------------------------------|
A|------------------------------5-----------|
E|-0-----0-2-3--5--3h5p3-2--0---5-----------|

VERSE 2
Eb                    Eb7M  
 Every life is like a song
              Eb7        Ab
That takes forever to be sung
             Ab
When all our silly games
      Dm7dim5      Eb
Wreak havoc on our spoils

PRE-CHORUS
       Eb   Db
When I stop to
Eb    Db
Think of
Eb  Db         Ab 
All that we've done
        Eb
Satan's at the door

MAIN RIFF (entire riff)

VERSE 3
Eb                   Eb7M  
 Every second, every minute
                  Eb7
Every hour, every day
              Ab              Ab
He's watching you and passing judgement to
     Dm7dim5       Eb
Everybody you hold dear

PRE-CHORUS
       Eb   Db
When I stop to
Eb    Db
Think of
Eb  Db         Ab 
All that we've done
               Abm
Satan's at the door
         Eb
Who's he looking for?

OUTRO
e|------------------------------------------|
B|------------------------------------------|
G|------------------------------------------|
D|------------------------------------------|
A|------------------------------5-----------|
E|-0-----0-2-3--5--3h5p3-2--0---5-----------|

______________________________

CHORDS
   Eb7M    Eb7   Dm7dim5
e|---6------6-------5----|
B|---8------8-------6----|
G|---7------6-------5----|
D|---8------8-------6----|
A|---6------6-------5----|
E|-----------------------|
Добавлено: 02.07.2015
Другие материалы по этой песне:
  • Аккорды и текст

Страница создана 02.07.2015
http://primanota.ru/king-gizzard-and-the-lizard-wizard/satan-speeds-up-chords.htm
Привет, Гость.
Предлагаем пройти революционный курс по гитаре.
Подарок от PrimaNota.Ru, забирай!