PrimaNota.ru - самый крупный в мире бесплатный архив песенных текстов, аккордов, табулатур и нот


King Gizzard And The Lizard Wizard - The River - таба, видео

Регистрация Запомнить меня
Войти через:  Facebook Google Twitter Vk Yandex Mail.ru

King Gizzard And The Lizard Wizard - The River - таба, видео

Печатать
Просмотров: 74
-------------------------------------------------------------------------------
                             THE RIVER - King Gizzard and The Lizard Wizard 
-------------------------------------------------------------------------------
Tabbed by:Sam D 
E-mail: samueljduce@yahoo.co.uk

Tuning:Standard
Rhythm guitar:
e|------------------|---------------------------------------------------------|
B|------------------|---------------------------------------------------------|
G|-----7-7---7-7----|----X loads----------------------------------------------|
D|-----7-7---6 6----|---------------------------------------------------------|
A|------------------|---------------------------------------------------------|
E|---7-----7--------|---------------------------------------------------------|

Lead Guitar:
e|----------------------------7-------------------------|---------------------|
B|--------------------------7-------9h10p9----9--7~-----|---------------------|
G|---------------6~---6-7-9---------------9-------------|----X2---------------|
D|--------6-7-9-----------------------------------------|---------------------|
A|---9--------------------------------------------------|---------------------|
E|------------------------------------------------------|---------------------|

e|------------------------------|---------------------------------------------|
B|------------------------------|---------------------------------------------|
G|---4--------------------------|----X3---------------------------------------|
D|-----4---7-6 ----7~-6-4----4--|---------------------------------------------|
A|-------------7----------7-----|---------------------------------------------|
E|------------------------------|---------------------------------------------|

e|---------------------------------------------------------------------------|
B|----------------------------------9b---------------------------------------|
G|--4-------------------------------9b---------------------------------------|
D|----4---7-6-----7~-6-4----4~---------------------------9-7-----------------|
A|------------7----------7------------------7-9--------------7---------------|
E|------------------------------7~---------------7~--------------------------|

e|--------------------------------------|
B|----------9b--------------------------|
G|----------9b--------------------------|
D|--------------------------------------|
A|--7-9-------------------7-9-----------|
E|-------7~--------------------7~-------|

e|------------------------------------------------------------------|---------|
B|------------------------------------------------------------------|---------|
G|------------------------------------------------------------------|--X2-----|
D|-------------------------------------------------------9p7-9p7----|---------|
A|---7-9----9-7---7------9-------11----9--7---7-------------------9-|---------|
E|-------7~-----9----10~---10s12----10-----9----7~------------------|---------|

Each guitar reverts back to the rhythm riff 

Repeat but with some general 'jam' style variation

I'll do the rest later, please post improvements!

PEACE X 


************************************

| /   slide up
| \   slide down
| h   hammer-on
| p   pull-off
| ~   vibrato
| +   harmonic
| x   Mute note
| b   Bend
| pb  Pre-bend
| br  Bend release
| pbr Pre-bend release
| brb Bend release bend

************************************
Добавлено: 13.03.2016
Другие материалы по этой песне:
  • Аккорды и текст

Страница создана 13.03.2016
http://primanota.ru/king-gizzard-and-the-lizard-wizard/river-chords.htm
Привет, Гость.
Предлагаем пройти революционный курс по гитаре.
Подарок от PrimaNota.Ru, забирай!