PrimaNota.ru - самый крупный в мире бесплатный архив песенных текстов, аккордов, табулатур и нот


King Gizzard And The Lizard Wizard - Paper Mache Dream Balloon - аккорды и текст, видео

Регистрация Запомнить меня
Войти через:  Facebook Google Twitter Vk Yandex Mail.ru

King Gizzard And The Lizard Wizard - Paper Mache Dream Balloon - аккорды и текст, видео

Печатать
Просмотров: 159
Уроки эстрадного вокала в Санкт-Петербурге
Paper Mache Dream Balloon
King Gizzard And The Lizard Wizard
King Gizzard & The Lizard Wizard - Paper Mâché Dream Balloon
song: https://www.youtube.com/watch?v=lci8-n8K394
note: lyric suggestions are welcome (let me know if you have their tab-book!)


VERSE 1
E          B/D#     C#m     B
Stuck in a daydream under a moonbeam
A          Am        E    D
Head on my pillow at home
E             B/D#   C#m        B
Drunk are the people outside my window
A       Am      E    D
Full of testosteron

PRE-CHORUS
E     E7    F#m
 When I get trouble my way
     A       Am
Like paper mache
     E        B/D#        C#m
They stick to my dream balloon
      B              A   Am   B7
And I kick it out my door

CHORUS

RIFF (2x)
   E            G     A     E             A     B
e|----------------------------------------------------|
B|----------------------------------------------------|
G|------4---------------------------------------------|
D|----6--------------------------------------------4--|
A|-7------6--7--5--7--4--7-------------5--4--7--6-----|
E|--------------------------7---7--5-7----------------|

Paper mache
Dream balloon

VERSE 2
E          B/D#     C#m     B
Are you all-knowing that I am brewing
A          Am        E    D
Moping around on my own
E          B/D#     C#m     B
Stuck in a daydream under a moonbeam
A          Am        E    D
Head on my pillow at home

PRE-CHORUS
E     E7    F#m
 When I get trouble my way
     A       Am
Like paper mache
     E        B/D#        C#m
They stick to my dream balloon
      B             A     Am  B7
And I hide it in my drawer

CHORUS

RIFF (2x)                                             first time only
   E            G     A     E             A     B       ( E  E7 )
e|----------------------------------------------------|
B|----------------------------------------------------|
G|------4---------------------------------------------|
D|----6--------------------------------------------4--|
A|-7------6--7--5--7--4--7-------------5--4--7--6-----|
E|--------------------------7---7--5-7----------------|

Paper mache
Dream balloon

PRE-CHORUS
E     E7    F#m
 When I get trouble my way
     A       Am
Like paper mache
  E             B/D#        C#m
I stick them to my dream balloon
      B              A   Am  B7
And I kick it out my door
E  B/D#  C#m     B             A     Am  B7
           and I hide it in my drawer
Добавлено: 13.03.2016
Другие материалы по этой песне:
  • Аккорды и текст

Страница создана 13.03.2016
http://primanota.ru/king-gizzard-and-the-lizard-wizard/paper-mache-dream-balloon-chords.htm
Привет, Гость.
Предлагаем пройти революционный курс по гитаре.
Подарок от PrimaNota.Ru, забирай!