PrimaNota.ru - самый крупный в мире бесплатный архив песенных текстов, аккордов, табулатур и нот


King Gizzard And The Lizard Wizard - Mystery Jack - аккорды и текст, видео

Регистрация Запомнить меня
Войти через:  Facebook Google Twitter Vk Yandex Mail.ru

King Gizzard And The Lizard Wizard - Mystery Jack - аккорды и текст, видео

Печатать
Просмотров: 146
Mystery Jack
King Gizzard And The Lizard Wizard
King Gizzard & The Lizard Wizard - Mystery Jack
song: https://www.youtube.com/watch?v=koK_cRo25WE

SYNTH INTRO
G     \ 2x
Bb  C /

GUITAR RIFF
   G           Bb       C     G            Bb        C
e|-----------------------------------------------------------|
B|-----------------------------------------------------------|
G|---2-0-------------------------2-0---------0-----0-----0---|
D|--------0--0---0-----0-----0--------0--0-3-----3-----3-----|
A|-------------3-----3-----3---------------------------------|
E|-----------------------------------------------------------|

   G           Bb       C     G            Bb      C
e|-----------------------------------------------------------|
B|-----------------------------------------------------------|
G|---2-0-----------------------------------------------------|
D|--------0------0------0------------------------------------|
A|-----------0-1-----3-------------------1-/5-3-1-3--1-------|
E|-------------------------3---------1-3-----------------3---|

VERSE 1
G       Bb       C
I am my mother's son
G                        Bb       C
I'll keep doing till the job gets done
G        Bb         C
I wasn't still for free
G               Bb      C
I won't see you next to me

CHORUS
       F     C
'cause I, oh I
F     Bb       C          G
I, oh I hope I don't wake up

VERSE 2
G           Bb       C
Give them a lonely soul
G                   Bb      C
I've got no friends on this road
G          Bb       C
 And I'm a mystery jack
    G                         Bb       C
The lines on my hands tell me I'm on track

CHORUS
     F            C
This time oh I'll die
F     Bb       C          G
I, oh I hope I don't wake up

GUITAR RIFF
   G           Bb       C     G            Bb        C
e|-----------------------------------------------------------|
B|-----------------------------------------------------------|
G|---2-0-------------------------2-0---------0-----0-----0---|
D|--------0--0---0-----0-----0--------0--0-3-----3-----3-----|
A|-------------3-----3-----3---------------------------------|
E|-----------------------------------------------------------|

   G           Bb       C     G            Bb      C
e|-----------------------------------------------------------|
B|-----------------------------------------------------------|
G|---2-0-----------------------------------------------------|
D|--------0------0------0------------------------------------|
A|-----------0-1-----3-------------------1-/5-3-1-3--1---3---|
E|-------------------------3---------1-3---------------------|

GUITAR SOLO
   F            C           F            Bb    C     G
e|--------------------------------------------------------|
B|--------------------------------------------------------|
G|---------------------------------------3--2--0-----0----|
D|---0-3---0-3-2----------------0-3-0-3-----------3-------|
A|----------------3--0--3---------------------------------|
E|--------------------------------------------------------|

   G       Bb     C     G             Bb     C     G 
e|--------------------------------------------------------|
B|------------------------------------------------3-------|
G|-------3-5br-3-5--3---------------3-5br-3-5--3--3-------|
D|---3-5---------------5--------3-5-----------------------|
A|--------------------------------------------------------|
E|--------------------------------------------------------|

   G             Bb    C     G              Bb    C
e|---3-3-3----------------------3-3-3---------------------|
B|---3-3-3----------------------3-3-3---------------------|
G|---------5-3---3--3--2--------------5-3---3--3--2--0----|
D|-------------5----------3--5------------5---------------|
A|--------------------------------------------------------|
E|--------------------------------------------------------|

CHORUS
F     C
I, oh I
F     Bb       C          G
I, oh I hope I don't wake up
Bb        C          G
 I hope I don't wake up
Bb        C          G
 I hope I don't wake up
Bb        C          G
 I hope I don't wake up

End on G
Добавлено: 02.07.2015
Другие материалы по этой песне:
  • Аккорды и текст

Страница создана 02.07.2015
http://primanota.ru/king-gizzard-and-the-lizard-wizard/mystery-jack-chords.htm
Привет, Гость.
Предлагаем пройти революционный курс по гитаре.
Подарок от PrimaNota.Ru, забирай!