PrimaNota.ru - самый крупный в мире бесплатный архив песенных текстов, аккордов, табулатур и нот


King Gizzard And The Lizard Wizard - Muckraker - аккорды и текст, видео

Регистрация Запомнить меня
Войти через:  Facebook Google Twitter Vk Yandex Mail.ru

King Gizzard And The Lizard Wizard - Muckraker - аккорды и текст, видео

Печатать
Просмотров: 147
Muckraker
King Gizzard And The Lizard Wizard
King Gizzard & The Lizard Wizard - Muckraker
song: https://www.youtube.com/watch?v=s2PjdldHnko

INTRO
e|---------------------------------|
B|---------------------------------|
G|---------------------------------|
D|---------------------------------|
A|-2-2-2-2-0-0-0-0-----------------|
E|-----------------4-4-4-4-2-2-2-2-|

   E     F#     E     F#    
e|-------------------------|
B|-4-----2-----4-----2-----| this riff continues
G|----4-----4-----4-----4--| while the main riff
D|-------------------------| is played
A|-------------------------|
E|-------------------------|

MAIN RIFF
   B       A       G#m     F#      E      F#       E       F#
e|-----------------------------------------------------------------|
B|-----------------------------------------------------------------|
G|-----------------------------------------------------------------|
D|-----------------------------------------------------------------|
A|-2-2-2-2-0-0-0-0-------------------------------------------------|
E|-----------------4-4-4-4-2-2-2-2-0-0-0-0-2-2-2-2-0-0-0-0-2-2-2-2-|
ooh ooh ooh ooh
ooh ooh
ooh ooh

VERSE 1
B
Clear the cobwebs off my brain
E          F#         E        F#
Ants have caved, it's not that great
B
Piss and shit uphold the flow
     E         F#       E        F#
I'll rake them up, it's just my luck

CHORUS
   B       A       G#m     F#      E      F#       E       F#
e|-----------------------------------------------------------------|
B|-----------------------------------------------------------------|
G|-----------------------------------------------------------------|
D|-----------------------------------------------------------------|
A|-2-2-2-2-0-0-0-0-------------------------------------------------|
E|-----------------4-4-4-4-2-2-2-2-0-0-0-0-2-2-2-2-0-0-0-0-2-2-2-2-|
Oh no
Whoo hoo
oh no, oh no, oh no, oh no

BRIDGE
B
Aah, ahah aah, ahah ah ah aah
Aah, ahah aah, ahah ah ah aah
E
Aah, ahah aah, ahah ah ah aah
B
Aah, ahah aah, ahah ah ah aah
    F#            E
Muckraker, oh muckraker
A     B       \ 2x
  Muckraker   /

MAIN RIFF (2X)
   B       A       G#m     F#      E      F#       E       F#
e|-----------------------------------------------------------------|
B|-----------------------------------------------------------------|
G|-----------------------------------------------------------------|
D|-----------------------------------------------------------------|
A|-2-2-2-2-0-0-0-0-------------------------------------------------|
E|-----------------4-4-4-4-2-2-2-2-0-0-0-0-2-2-2-2-0-0-0-0-2-2-2-2-|
ooh ooh ooh ooh
ooh ooh
ooh ooh

VERSE 2 (same as verse 1)
B
Clear the cobwebs off my brain, but
E          F#         E        F#
Ants have caves, it's not that great
B
Piss and shit uphold the flow
     E         F#       E        F#
I'll rake them up, it's just my luck

CHORUS (2x)
   B       A       G#m     F#      E      F#       E       F#
e|-----------------------------------------------------------------|
B|-----------------------------------------------------------------|
G|-----------------------------------------------------------------|
D|-----------------------------------------------------------------|
A|-2-2-2-2-0-0-0-0-------------------------------------------------|
E|-----------------4-4-4-4-2-2-2-2-0-0-0-0-2-2-2-2-0-0-0-0-2-2-2-2-|
Oh no
Whoo hoo
oh no, oh no, oh no, oh no

BRIDGE
B
Aah, ahah aah, ahah ah ah aah
Aah, ahah aah, ahah ah ah aah
E
Aah, ahah aah, ahah ah ah aah
B
Aah, ahah aah, ahah ah ah aah
    F#            E
Muckraker, oh muckraker
A     B       \ 4x
  Muckraker   /

OUTRO
   B       A       G#m     F#      E      F#       E       F#
e|-----------------------------------------------------------------|
B|-----------------------------------------------------------------| \
G|-----------------------------------------------------------------|  4x
D|-----------------------------------------------------------------| /
A|-2-2-2-2-0-0-0-0-------------------------------------------------|
E|-----------------4-4-4-4-2-2-2-2-0-0-0-0-2-2-2-2-0-0-0-0-2-2-2-2-|

End on B
Добавлено: 02.07.2015
Другие материалы по этой песне:
  • Аккорды и текст

Страница создана 02.07.2015
http://primanota.ru/king-gizzard-and-the-lizard-wizard/muckraker-chords.htm
Привет, Гость.
Предлагаем пройти революционный курс по гитаре.
Подарок от PrimaNota.Ru, забирай!