PrimaNota.ru - самый крупный в мире бесплатный архив песенных текстов, аккордов, табулатур и нот


King Gizzard And The Lizard Wizard - Most Of What I Like - бас-таба, видео

Регистрация Запомнить меня
Войти через:  Facebook Google Twitter Vk Yandex Mail.ru

King Gizzard And The Lizard Wizard - Most Of What I Like - бас-таба, видео

Печатать
Просмотров: 61
-------------------------------------------------------------------------------
                             SONG NAME - Band Name
-------------------------------------------------------------------------------
Tabbed by: paraselene
E-mail: 

Tuning: semitone up (G# D# A# F)

verse:
G|-------------------------------------------------------------|
D|------------------------2---2--2---3---3--3---3---3--3-------|
A|--3---3--3---3---3--3----------------------------------------|
E|-------------------------------------------------------------|

G|-------------------------------------------------------------|
D|--3---3--3---6---6--6---3------------------------------------|
A|---------------------------1--1---3--3-----------------------|
E|-------------------------------------------------------------|

bridge:
G|-------------------------------------------------------------|
D|-------------------------------------------------------------|
A|--3---3--3---4---4--4---5---5--5--5/10---10--10--------------|
E|-------------------------------------------------------------|

G|--------------------------------------------------------|-------------------------------|
D|--------------------------------------------------------|-------------------------------|
A|--5---5--5--5/10---10--10----5---5--5--5/10---10--10----|--5---5--5--5/10---10--10--5---|
E|--------------------------------------------------------|-------------------------------|

pre-chorus:
G|-----------------------------------------|
D|--------------------------3--3-----------|
A|--8---8--8---3--3---1--1--------3--3-----|
E|-----------------------------------------|

chorus:
G|--------------------------------------------------------------|
D|---------3--3-----------------------3--3----------------------|
A|--1--1---------3--3---3--3---1--1---------3--3---3--3---------|
E|--------------------------------------------------------------|

instrumental:
G|---------------------------5---5---------|
D|-----------------------------5-----------|
A|--1--------0--------3--------------------|
E|-----------------------------------------|



| /  slide up
| \  slide down
| h  hammer-on
| p  pull-off
| ~  vibrato
| +  harmonic
| x  Mute note
===============================================================================
Добавлено: 13.03.2016
Другие материалы по этой песне:
  • Аккорды и текст

Страница создана 13.03.2016
http://primanota.ru/king-gizzard-and-the-lizard-wizard/most-of-what-i-like-chords.htm
Привет, Гость.
Предлагаем пройти революционный курс по гитаре.
Подарок от PrimaNota.Ru, забирай!