PrimaNota.ru - самый крупный в мире бесплатный архив песенных текстов, аккордов, табулатур и нот


King Gizzard And The Lizard Wizard - I Am Not A Man Unless I Have A Woman - аккорды и текст, бас-таба, видео

Регистрация Запомнить меня
Войти через:  Facebook Google Twitter Vk Yandex Mail.ru

King Gizzard And The Lizard Wizard - I Am Not A Man Unless I Have A Woman - аккорды и текст, бас-таба, видео

Печатать
Просмотров: 199
Уроки эстрадного вокала в Санкт-Петербурге
I Am Not A Man Unless I Have A Woman
King Gizzard And The Lizard Wizard
King Gizzard & The Lizard Wizard - I Am Not A Man Unless I Have A Woman
song: https://www.youtube.com/watch?v=nyk-E71tp54

INTRO
D      \ 2x
G  C   /

VERSE 1
     D           G            G      D  
Well I, am not a man unless I have a woman
G   C
     D           G            G      D  
Well I, am not a man unless I have a woman
Ooh

RIFF 1
   G Gs4 G       C   Cs4 C
e|-3--3--3-------8---8---8---|
B|-3--3--3-------8---8---8---| (s4 means sus4)
G|-4--5--4-------9---10--9---|
D|-5--5--5-------10--10--10--|
A|---------------------------|
E|---------------------------|

VERSE 2
D                          G           C
 She's a hundred pounds of gold (yes I am!)
D                          G    C
 She's a hundred pounds of gold
D               G     C          D
 Well I got mine so I don't mind no

RIFF 1
G   C

VERSE 3
     D           G    G                D  
Well I, am not a woman unless I have a man
G   C
       D           G    G                D  
Oh but I, am not a woman unless I have a man

RIFF 1
G   C

GUITAR INTERLUDE
   E                 A                    E                 G      A
e|-12-10------------10-----10-12br--12-10-12-10---------------------------|
B|-------12-10--12------12----------------------12-10--12-----------------|
G|---------------------------------------------------------11--12--9------|
D|--------------------------------------------------------------------12--|
A|------------------------------------------------------------------------|
E|------------------------------------------------------------------------|

   D                    G          C
e|--------------------------------------------| \
B|---7h8-7h8-7--5----------5h6-5h6-5----------|  4x
G|-----------------7------------------7--5----| /
D|--------------------------------------------|
A|--------------------------------------------|
E|--------------------------------------------|

BRIDGE
E                         A
 I ain't gonna break your heart
E                    A
 I'm gonna break him hard 

RIFF 1
G   C
(it's not over) 

VERSE 4
     D           G            G      D  
Well I, am not a man unless I have a woman
G   C
     D           G            G      D  
Well I, am not a man unless I have a woman
Ooh

RIFF 1
G   C

VERSE 5
D                          G            C
 She's a hundred pounds of gold (he's a hundred pounds of gold!)
D                          G             C
 She's a hundred pounds of gold (he's a hundred pounds of gold!)
D               G     C          D
 Well I got mine so I don't mind no

OUTRO
E                       A
 He's gonna break my heart (yeah I know he's wrong)
E                    A
 I'm gonna break him hard, oh no (yeah)
D
Добавлено: 02.07.2015
Другие материалы по этой песне:
  • Аккорды и текст

Страница создана 02.07.2015
http://primanota.ru/king-gizzard-and-the-lizard-wizard/i-am-not-a-man-unless-i-have-a-woman-chords.htm
Привет, Гость.
Предлагаем пройти революционный курс по гитаре.
Подарок от PrimaNota.Ru, забирай!