PrimaNota.ru - самый крупный в мире бесплатный архив песенных текстов, аккордов, табулатур и нот


King Gizzard And The Lizard Wizard - Hot Water - таба, видео

Регистрация Запомнить меня
Войти через:  Facebook Google Twitter Vk Yandex Mail.ru

King Gizzard And The Lizard Wizard - Hot Water - таба, видео

Печатать
Просмотров: 182
Авторы: Joe Walker, Stu Mackenzie

King Gizzard & The Lizard Wizard - Hot Water
song: https://www.youtube.com/watch?v=wVI9-iFl-QI

INTRO

Bass riff (throughout large parts of the song)
G|----11---------------|
D|--------12--14-------|
A|---------------------|
E|----------------12---|

CHORUS flute riff
   E5
e|------------------------------------|
B|------------------------------------|\
G|--6--7-7/9--6--7-7--6--7-7--6--7-7--| 4x
D|------------------------------------|/
A|------------------------------------|
E|------------------------------------|

MAIN RIFF (guitar plays open E on the bottom string throughout)
   E5
e|------------------------------------------------------|
B|---------------7--------7-9-7h9p7---------------------|
G|----7--7---7-9----9--------------9--7-9-7-------------|
D|---------9---------------------------------7-9-7------|
A|------------------------------------------------------|
E|------------------------------------------------------|
   E5                                 D      A
e|------------------------------------------------------|
B|---------------7--------7-9-7h9p7---------------------|
G|----7--7---7-9----9--------------9--7-9-7-------------|
D|---------9---------------------------------7-9-7------|
A|------------------------------------------------------|
E|------------------------------------------------------|

CHORUS Flute riff 2x

VERSE 1
   E5                                                      D       A
     Eat up, vo- mit, date-line, re- pay,  sys-tem failure, wish for old way
e|----------------------------------------------------------------------------|
B|---5-------------------------------------7-------8--------------------------|
G|-----------7---------6---------7-------------5-------5----7---7----6---6----|
D|-------6-------6---------7---------6----------------------------------------|
A|----------------------------------------------------------------------------|
E|----------------------------------------------------------------------------|

    Straighten bend it   de-cline spend it   be- leave sceptic, everybody's standing in..
e|----------------------------------------------------------------------------------|
B|---5---------------------------------------7---------8----------------------------|
G|-------------7---------6---------7-------------5---------5----7-7-7-7---6-6-6-6---|
D|---------6--------6--------7---------6--------------------------------------------|
A|----------------------------------------------------------------------------------|
E|----------------------------------------------------------------------------------|

CHORUS
   E5
    Hot water, hot water etc.
e|-----------------------------------|
B|-----------------------------------|\
G|--6--7-7--6--7-7--6--7-7/9-6--7-7--| 2x
D|-----------------------------------|/
A|-----------------------------------|
E|-----------------------------------|

MAIN RIFF

CHORUS
   E5
    Hot water, hot water etc.
e|-----------------------------------|
B|-----------------------------------|
G|--6--7-7--6--7-7--6--7-7/9-6--7----|
D|--------------------------------6--|
A|-----------------------------------|
E|-----------------------------------|

   E5
e|----------------------------------------|
B|----------------------------------------|
G|--6--7-----6--7-----6--7-----6--7-7/9---|
D|-------7/9------7/9------7/9------------|
A|----------------------------------------|
E|----------------------------------------|

VERSE 2
   E5                                                      D       A
    Sheet of pa- per,  mountain  ra- per,  moment  si-lence I  am   spineless
e|----------------------------------------------------------------------------|
B|---5-------------------------------------7-------8--------------------------|
G|-----------7---------6---------7-------------5-------5----7---7----6---6----|
D|-------6-------6---------7---------6----------------------------------------|
A|----------------------------------------------------------------------------|
E|----------------------------------------------------------------------------|

   E5                                                           D           A
     E- choes en-  ding whispers  trending  heat is    co- ming everybody's stranded in...
e|------------------------------------------------------------------------------------|
B|---5--------------------------------------7----------8------------------------------|
G|------------7---------6---------7--------------5---------5----7-7-7-7-----6-6-6-6---|
D|-------6---------6--------7---------6-----------------------------------------------|
A|------------------------------------------------------------------------------------|
E|------------------------------------------------------------------------------------|

CHORUS
   E5
    Hot water, hot water etc.
e|-----------------------------------|
B|-----------------------------------|
G|--6--7-7--6--7-7--6--7-7/9-6--7-7--|
D|-----------------------------------|
A|-----------------------------------|
E|-----------------------------------|

   E5
e|--------------------------------------|
B|--------------------------------------|
G|--6--7-7/9-6--7-7/9-6--7-7/9-6-7-7/9--|
D|--------------------------------------|
A|--------------------------------------|
E|--------------------------------------|

   E5
e|-----------------------------------|
B|-----------------------------------|
G|--6--7-7/9-6--7-7--6--7-7/9-6-7-7--|
D|-----------------------------------|
A|-----------------------------------|
E|-----------------------------------|

   E5
e|----------------------------------------|
B|----------------------------------------|
G|--6--7-----6--7-----6--7-----6--7-7/9---|
D|-------7/9------7/9------7/9------------|
A|----------------------------------------|
E|----------------------------------------|

MAIN RIFF

CHORUS riff (do improvise)

OUTRO
Flute solo bit (4x)
e|-----------------------------|
B|-----------------------------|
G|-6--6-6-7--7-7-7-6--7--7--7--|
D|-----------------------------|
A|-----------------------------|
E|-----------------------------|
Добавлено: 02.07.2015
Другие материалы по этой песне:
  • Аккорды и текст

Страница создана 02.07.2015
http://primanota.ru/king-gizzard-and-the-lizard-wizard/hot-water-chords.htm
Привет, Гость.
Предлагаем пройти революционный курс по гитаре.
Подарок от PrimaNota.Ru, забирай!