PrimaNota.ru - самый крупный в мире бесплатный архив песенных текстов, аккордов, табулатур и нот


King Gizzard And The Lizard Wizard - Head On Pill - таба, видео

Регистрация Запомнить меня
Войти через:  Facebook Google Twitter Vk Yandex Mail.ru

King Gizzard And The Lizard Wizard - Head On Pill - таба, видео

Печатать
Просмотров: 191
Уроки эстрадного вокала в Санкт-Петербурге
King Gizzard & The Lizard Wizard - Head On/Pill
song: https://www.youtube.com/watch?v=23vVIgTMZFU

INTRO (MAIN GUITAR/SITAR RIFF)
   G
e|----------------------------------------------------------------------|
B|----------------------------------------------------------------------|
G|------------------7--9--9br--7-9-------7--9--9br--7-9-----------------|
D|---------7-9---------------------9--------------------9---------------|
A|-10---10-------------------------------------------------8--/12-10-10-|

E|----------------------------------------------------------------------|

G (0:27-0:54)
Dabble with some nice licks here

MAIN GUITAR RIFF(0:54-1:17)
  G
e|----------------------------------------------------------------------|
B|----------------------------------------------------------------------|
G|------------------7--9--9br--7-9-------7--9--9br--7-9-----------------|
D|---------7-9---------------------9--------------------9---------------|
A|-10---10-------------------------------------------------8--/12-10-10-|

E|----------------------------------------------------------------------|

 G
e|----------------------------------------------------------------------|
B|---------------------------------8--------------------8---------------|
G|------------------7--9--9br--7-9-------7--9--9br--7-9-----10-9-7-7----|
D|---------7-9----------------------------------------------------------|
A|-10---10--------------------------------------------------------------|

E|----------------------------------------------------------------------|

VERSE 1
G
Just yesterday I set a cross through my list
G                        
They were connected to me
F  C
    G
And I couldn't see cause my eyes were in me
Hold me up straight while I screw my
F    C
Head on

MAIN GUITAR RIFF (first part)
 G
e|----------------------------------------------------------------------|
B|----------------------------------------------------------------------|
G|------------------7--9--9br--7-9-------7--9--9br--7-9-----------------|
D|---------7-9---------------------9--------------------9---------------|
A|-10---10-------------------------------------------------8--/12-10-10-|

E|----------------------------------------------------------------------| 

F    C
Head on

MAIN GUITAR RIFF (second part)
G
e|----------------------------------------------------------------------|
B|---------------------------------8--------------------8---------------|
G|------------------7--9--9br--7-9-------7--9--9br--7-9-----10-9-7-7----|
D|---------7-9----------------------------------------------------------|
A|-10---10--------------------------------------------------------------|

E|----------------------------------------------------------------------|

VERSE 2
G
Just yesterday I helped a cup to my list
Pouring it deep in my throat
Staring at me like a black enemy
Hold me up straight while I screw my
F    C
Head on

GUITAR SOLO (2:35-3:24)
G              \
G               \
G                \ 4x, last time without 'Head on'
G     F    C     /
      Head on   /

FASTER! (3:25-3:46)
G

(3:46-3:58)
G    F       
G    F

(3:58-4:17)
G(sus4)    \ 2x
G          /

(4:17-4:28)
G

BUILD-UP
G
Ooh ooh ooh
F  G
   Ooh ooh ooh ooh
F  G
   Ooh ooh ooh ooh ooh
G
Ooh ooh ooh (yeah)

MAIN RIFF 2 (4x)
   G(sus4)                           G
e|-8---8---8---8---8---8---8---8-10--7---7---7---7---7---7---7---7----|
B|---8---8---8---8---8---8---8---------8---8---8---8---8---8---8---8--|
G|--------------------------------------------------------------------|
D|--------------------------------------------------------------------|
A|--------------------------------------------------------------------|
E|--------------------------------------------------------------------|

(5:30-6:01)
G

GUITAR SOLO (6:01-6:11)
e|-----------------------|
B|-------6h8-------------|
G|-----------5-----5h7---|
D|-5---------------------|
A|-----------------------|
E|-----------------------|

(6:13-6:32)
G

BRIDGE (2x)
  G
I ate the wrong, I ate the wrong
I ate the wrong, I ate the wrong
                                   F
I ate the wrong, I ate the wro- ong

Gsus4  \ 2x
G      /

BRIDGE (2x)
  G
I ate the wrong, I ate the wrong
I ate the wrong, I ate the wrong
                                   F
I ate the wrong, I ate the wro- ong

MAIN RIFF 2 (4x)
   G(sus4)                           G
e|-8---8---8---8---8---8---8---8-10--7---7---7---7---7---7---7---7----|
B|---8---8---8---8---8---8---8---------8---8---8---8---8---8---8---8--|
G|--------------------------------------------------------------------|
D|--------------------------------------------------------------------|
A|--------------------------------------------------------------------|
E|--------------------------------------------------------------------|
Pill, pill, pill, pill, pill, pill, pill, pi-ill
Pill, pill, pill, pill, pill, pill, pill, pill

(8:17-8:36)
G

One, two, three, four

BREAKDOWN (8:36-8:47)
G

GUITAR SOLO RIFFS
   G
e|-10--------10-----10--12--| \
B|------12-------12---------|  4x
G|--------------------------| /
D|--------------------------|
A|--------------------------|
E|--------------------------|

e|-15---15----15---15----15---15----15---15----|
B|----12---12----12---12----12---12----12---12-| repeat
G|---------------------------------------------| these
D|---------------------------------------------|
A|---------------------------------------------|
E|---------------------------------------------|

e|-10--12--10--12--10--12-10--12-10--12--10--12--10--12-10--12-|
B|-------------------------------------------------------------| two
G|-------------------------------------------------------------| bars
D|-------------------------------------------------------------| once
A|-------------------------------------------------------------|
E|-------------------------------------------------------------|

(some fuzz in between)

e|-------------10----------| \
B|-13--12---13----13-12-13-|  8x
G|-------------------------| /
D|-------------------------|
A|-------------------------|
E|-------------------------|

BREAKDOWN, SITAR AND DRUMS SOLO (9:44-10:57)
G
G
G
G  F  

GUITAR RIFF (10:57-11:49)
   G
e|---3---3---3---3---3---3---3---3---3---3---3---3---3---3---3-|
B|-3---3---3---3---3---3---3---1---1---1---1---1---1---1---1---|
G|-------------------------------------------------------------|
D|-------------------------------------------------------------|
A|-------------------------------------------------------------|
E|-------------------------------------------------------------|

From 11:28 onward this riff enters, played twice
e|------------------------------------------------------------------|
B|-8888888866666666-------------------------------------------------|
G|-----------------777777775555555544444444444444445555555555555555-|
D|------------------------------------------------------------------|
A|------------------------------------------------------------------|
E|------------------------------------------------------------------|

BREAKDOWN (11:49-12:35)
G
G
G
G  F  

BRIDGE (2x)
  G
I ate the wrong, I ate the wrong
I ate the wrong, I ate the wrong
                                   F
I ate the wrong, I ate the wro- ong

MAIN RIFF 2 (4x)
   G(sus4)                           G
e|-8---8---8---8---8---8---8---8-10--7---7---7---7---7---7---7---7----|
B|---8---8---8---8---8---8---8---------8---8---8---8---8---8---8---8--|
G|--------------------------------------------------------------------|
D|--------------------------------------------------------------------|
A|--------------------------------------------------------------------|
E|--------------------------------------------------------------------|
Pill, pill, pill, pill, pill, pill, pill, pi-ill
Pill, pill, pill, pill, pill, pill, pill, pill

(13:37-13:58)
G(sus4)
G

(13:58-14:18)
G

GUITAR RIFF (14:18-14:38)
e|-7---7---7---7---7---7---7---7---7---7---7---7---7---7---7---7----|
B|---8---8---8---8---8---8---8---8---8---8---8---8---8---8---8---8--|
G|------------------------------------------------------------------|
D|------------------------------------------------------------------|
A|------------------------------------------------------------------|
E|------------------------------------------------------------------|

BUILD-UP
G
Ooh ooh ooh
G
Ooh ooh ooh ooh
G
Ooh ooh ooh ooh ooh
G
Ooh ooh ooh (yeah)

OUTRO
G

(song ends with variations on the MAIN GUITAR RIFF)
Добавлено: 02.07.2015
Другие материалы по этой песне:
  • Аккорды и текст

Страница создана 02.07.2015
http://primanota.ru/king-gizzard-and-the-lizard-wizard/head-on-pill-chords.htm
Привет, Гость.
Предлагаем пройти революционный курс по гитаре.
Подарок от PrimaNota.Ru, забирай!