PrimaNota.ru - самый крупный в мире бесплатный архив песенных текстов, аккордов, табулатур и нот


King Gizzard And The Lizard Wizard - The Bitter Boogie - бас-таба, видео

Регистрация Запомнить меня
Войти через:  Facebook Google Twitter Vk Yandex Mail.ru

King Gizzard And The Lizard Wizard - The Bitter Boogie - бас-таба, видео

Печатать
Просмотров: 80
Уроки эстрадного вокала в Санкт-Петербурге
-------------------------------------------------------------------------------
                 THE BITTER BOOGIE - King Gizzard & The Lizard Wizard
-------------------------------------------------------------------------------
Tabbed by: paraselene

Tuning: standard

intro/verse:
G|-----|--------------------------------------|
D|-----|--------------------------------------|
A|--5--|--------1--3--5--------1--3--5--------|
E|-----|--3--3-----------3--3-----------------|

chorus: ("bitter, bitter, bitter...")
G|-----|--------------------------------------|
D|-----|--------------------------------------|
A|-----|--------1--3-----------1--3-----------|
E|--1--|--3--3--------1--3--3--------1--------|

pre-chorus:
G|----------------------------------------------------|
D|----------------------------------------------------|
A|--5--3------5--3------5--3------5--3---1--3--5------|
E|----------------------------------------------------|



| /  slide up
| \  slide down
| h  hammer-on
| p  pull-off
| ~  vibrato
| +  harmonic
| x  Mute note
===============================================================================
Добавлено: 13.03.2016
Другие материалы по этой песне:
  • Аккорды и текст

Страница создана 13.03.2016
http://primanota.ru/king-gizzard-and-the-lizard-wizard/bitter-boogie-chords.htm
Привет, Гость.
Предлагаем пройти революционный курс по гитаре.
Подарок от PrimaNota.Ru, забирай!