PrimaNota.ru - самый крупный в мире бесплатный архив песенных текстов, аккордов, табулатур и нот


King Diamond - The Ritual - текст песни, таба, видео

Регистрация Запомнить меня
Войти через:  Facebook Google Twitter Vk Yandex Mail.ru

King Diamond - The Ritual - текст песни, таба, видео

Печатать
Просмотров: 144
Solo 1

  (adjust appropriately)*               ~
|----------------------------------------7-8-10-8-7-5----5-7-8-7-5------|
|---------7-------------------------------------------8-7---------8-7-5-|
|-9h10p9*-9*-9-8-7-5--------7b8-7b8p5-----------------------------------|
|-----------------------7-------------7---------------------------------|
|---------------------0---6---------------------------------------------|
|-----------------------------------------------------------------------|


                                   ~~
|------------------------------------------------------17-15----------------15-----|
|---------------------------------------------15-17-18-------------15-17-18----18--|
|-4h5h7p5p4-----------------------15-----15-17----------------15-17----------------|
|-----------7-5-4-7-5-4------------------------------------------------------------|
|-----------------------7-5--------------------------------------------------------|
|---------------------------8-7-5--------------------------------------------------|


|-17p13----13-17--17-15-13----------------------------------------------------------------------|
|-------15-----------------17-15-13-------------------------------------------------------------|
|-----------------------------------14-15-17-14-15-17-15-14-------------------14----------------|
|-----------------------------------------------------------17-15-14-14-15-17----17-15-14-------|
|-----------------------------------------------------------------------------------------17----|
|-----------------------------------------------------------------------------------------------|


                     ~~                        ~~
|---------------------------------------------------|
|---------------------------------------------------|
|---------------------------------------------------|
|----------12-14-15---------------------------------|
|-12-13-15----------13--15-13h15p13-12--10-13-11----|
|---------------------------------------------------|


==================================================================================================


Solo 2


|-----------------------13-12h13p12p10--------15-13-12|
|-14b15-14r12--10-12-13----------------13-12----------|
|-----------------------------------------------------|
|-----------------------------------------------------|
|-----------------------------------------------------|
|-----------------------------------------------------|

---------------------------------------------|
-15-13-12-10-12h13-12-12S13-13-13S15-15-15S12|
---------------------------------------------|
---------------------------------------------|
---------------------------------------------|
---------------------------------------------|



                                 ~~
|--------------------------------------------------------------------12-13-12-------------------|
|-12-12S13-13-13S10-10-10S12-12-12-----------------------------13-15----------15-13-------------|
|-----------------------------------------------------12-14-15----------------------15-14-12----|
|--------------------------------------------12-14-15-------------------------------------------|
|-----------------------------------12-13-15----------------------------------------------------|
|-----------------------------------------------------------------------------------------------|


|----------------------------|
|----------------------------|
|----------------------------|
|-12-14-15-14-12-------------|
|----------------15-13-12----|
|----------------------------|

Note : The tab is very bunched up,so do not play it as it is,but adjust the timing  of 
the notes as it is in the song.

Tabbed by : douShred
Добавлено: 13.04.2012
Другие материалы по этой песне:
  • Аккорды и текст

Страница создана 13.04.2012
http://primanota.ru/king-diamond/the-ritual-chords.htm
Привет, Гость.
Предлагаем пройти революционный курс по гитаре.
Подарок от PrimaNota.Ru, забирай!