PrimaNota.ru - самый крупный в мире бесплатный архив песенных текстов, аккордов, табулатур и нот


King Crimson - Three Of A Perfect Pair - текст песни, таба, бас-таба, видео

Регистрация Запомнить меня
Войти через:  Facebook Google Twitter Vk Yandex Mail.ru

King Crimson - Three Of A Perfect Pair - текст песни, таба, бас-таба, видео

Печатать
Просмотров: 705
Уроки эстрадного вокала в Санкт-Петербурге
standard tuning


  Gtr I
|-------||---------------8-----------------|---------------------------------|
|-------||o----------8--------------8---11-|----------8---------------8------|
|-------||---------------------------------|--------------10--------------8--|
|-------||--10---------8---10---------8----|-10---------8----10---------8----|
|-------||o-------10-------------10--------|-------10--------------10--------|
|-------||-----11-------------11-----------|----11--------------11-----------|
|
| Gtr II
|-------||---------------------------------|---------------------------------|
|-------||o--------------------------------|---------------------------------|
|-------||-----------8--------------8------|----------8---------------8------|
|-------||--10-------------10--------------|-10--------------10--------------|
|-------||o--------6---8----------6---8----|--------6---8-----------6---8----|
|-------||------8--------6-----8---------6-|-----8---------6-----8--------6--|


|--------------8-----------------|--------------------------------|
|----------8--------------8---11-|----------8---------------8-----|
|--------------------------------|--------------10--------------8-|
|-10---------8---10---------8----|-10---------8----10---------8---|
|-------10-------------10--------|-------10--------------10-------|
|----11-------------11-----------|----11--------------11----------|
|
|--------------------------------|--------------------------------|
|--------------------------------|--------------------------------|
|----------8--------------8------|----------8---------------8-----|
|-10-------------10--------------|-10--------------10-------------|
|--------6---8----------6---8----|--------6---8-----------6---8---|
|-----8--------6-----8---------6-|-----8---------6-----8--------6-|


  Fm
|-------------------------------------|-------------------------------------|
|-11-------13-------11-------13-------|-11-------13-------11-------13-------|
|----10-------10-------10-------10----|----10-------10-------10-------10----|
|-------10-------10-------10-------10-|-------10-------10-------10-------10-|
|-------------------------------------|-------------------------------------|
|-------------------------------------|-------------------------------------|
|
|-------------------------------------|-------------------------------------|
|--8--------9--------8--------9-------|--8--------9--------8--------9-------|
|-------------10----------------10----|-------------10----------------10----|
|-------------------------------------|-------------------------------------|
|-----8-11-------11-----8-11-------11-|-----8-11-------11-----8-11-------11-|
|-------------------------------------|-------------------------------------|


  Cm
|--------------8-----------------|--------------------------------|
|----------8--------------8---11-|----------8---------------8-----|
|--------------------------------|--------------10--------------8-|
|-10---------8---10---------8----|-10---------8----10---------8---|
|-------10-------------10--------|-------10--------------10-------|
|----11-------------11-----------|----11--------------11----------|
|
|--------------------------------|--------------------------------|
|--------------------------------|--------------------------------|
|----------8--------------8------|----------8---------------8-----|
|-10-------------10--------------|-10--------------10-------------|
|--------6---8----------6---8----|--------6---8-----------6---8---|
|-----8--------6-----8---------6-|-----8---------6-----8--------6-|


  Gm
|-------------------------------------|-------------------------------------|
|-13-------15-------13-------15-------|-13-------15-------13-------15-------|
|----12-------12-------12-------12----|----12-------12-------12-------12----|
|-------12-------12-------12-------12-|-------12-------12-------12-------12-|
|-------------------------------------|-------------------------------------|
|-------------------------------------|-------------------------------------|
|
|-------------------------------------|-------------------------------------|
|-10-------11-------10-------11-------|-10-------11-------10-------11-------|
|-------------12----------------12----|-------------12----------------12----|
|-------------------------------------|-------------------------------------|
|----10-13-------13----10-13-------13-|----10-13-------13----10-13-------13-|
|-------------------------------------|-------------------------------------|


  Fm
|-------------------------------------|-------------------------------------|
|-11-------13-------11-------13-------|-11-------13-------11-------13-------|
|----10-------10-------10-------10----|----10-------10-------10-------10----|
|-------10-------10-------10-------10-|-------10-------10-------10-------10-|
|-------------------------------------|-------------------------------------|
|-------------------------------------|-------------------------------------|
|
|-------------------------------------|-------------------------------------|
|--8--------9--------8--------9-------|--8--------9--------8--------9-------|
|-------------10----------------10----|-------------10----------------10----|
|-------------------------------------|-------------------------------------|
|-----8-11-------11-----8-11-------11-|-----8-11-------11-----8-11-------11-|
|-------------------------------------|-------------------------------------|


  Cm
|--------------8-----------------|---------------------------------||
|----------8--------------8---11-|----------8---------------8-----o||
|--------------------------------|--------------10--------------8--||
|-10---------8---10---------8----|-10---------8----10---------8----||
|-------10-------------10--------|-------10--------------10-------o||
|----11-------------11-----------|----11--------------11-----------||
|
|--------------------------------|---------------------------------||
|--------------------------------|--------------------------------o||
|----------8--------------8------|----------8---------------8------||
|-10-------------10--------------|-10--------------10--------------||
|--------6---8----------6---8----|--------6---8-----------6---8---o||
|-----8--------6-----8---------6-|-----8---------6-----8--------6--||


 Chorus
  Am
 7/8
|----------------------------|----------------------------|
|----------------------------|----------------------------|
|-9-------------7-9--------7-|-9-------------7-9--------7-|
|---7---10-(10)-----7---10---|---7---10-(10)-----7---10---|
|----------------------------|----------------------------|
|----------------------------|----------------------------|
|
|----------------------------|----------------------------|
|----------------------------|----------------------------|
|----------------------------|----------------------------|
|-7------5--(5)-7-7------5-7-|-7------5--(5)-7-7------5-7-|
|----------------------------|----------------------------|
|-----5---------------5------|-----5---------------5------|


  Dm/A
|------------------------------|
|------------------------------|
|-10-------------7-10--------7-|
|----7---10-(10)------7---10---|
|------------------------------|
|------------------------------|
|
|------------------------------|
|------------------------------|
|--7----------------7----------|
|---------5--(5)-7---------5-7-|
|------------------------------|
|------5----------------5------|


                                 Dm             DsuDm         Dsus2Dm
|------------------------------|---------------------------------|
|------------------------------|---------------------------------|
|-10-------------7-10--------7-|-10-------------7--10---------7--|
|----7---10-(10)------7---10---|----7---10-(10)-------7---10-----|
|------------------------------|---------------------------------|
|------------------------------|---------------------------------|
|
|------------------------------|--5---x--5------5---5---x--5--5--|
|------------------------------|--6---x--6------5---6---x--6--5--|
|--7----------------7----------|--7---x--7------7---7---x--7--7--|
|---------5--(5)-7---------5-7-|--7---x--7------7---7---x--7--7--|
|------------------------------|--5---x--5------5---5---x--5--5--|
|------5----------------5------|---------------------------------|


                 DsuDm         Dsus2
|-----------------------------------|
|-----------------------------------|
|-10-------------7--10---------7----|
|----7---10-(10)-------7---10-------|
|-----------------------------------|
|-----------------------------------|
|
|--5---x--5------5---5---x--5--5----|
|--6---x--6------5---6---x--6--5----|
|--7---x--7------7---7---x--7--7----|
|--7---x--7------7---7---x--7--7----|
|--5---x--5------5---5---x--5--5----|
|-----------------------------------|


  Em             EsuEm         Esus2Em             EsuEm         Esus2Dm
|---------------------------------|---------------------------------|
|---------------------------------|---------------------------------|
|-12-------------9--12---------9--|-12-------------9--12---------9--|
|----9---12-(12)-------9---12-----|----9---12-(12)-------9---12-----|
|---------------------------------|---------------------------------|
|---------------------------------|---------------------------------|
|
|--7---x--7------7---7---x--7--7--|--7---x--7------7---7---x--7--7--|
|--8---x--8------7---8---x--8--7--|--8---x--8------7---8---x--8--7--|
|--9---x--9------9---9---x--9--9--|--9---x--9------9---9---x--9--9--|
|--9---x--9------9---9---x--9--9--|--9---x--9------9---9---x--9--9--|
|--7---x--7------7---7---x--7--7--|--7---x--7------7---7---x--7--7--|
|---------------------------------|---------------------------------|


                 DsuDm         Dsus2
|-----------------------------------|
|-----------------------------------|
|-10-------------7--10---------7----|
|----7---10-(10)-------7---10-------|
|-----------------------------------|
|-----------------------------------|
|
|--5---5--5------5---5---x--5--5----|
|--6---6--6------5---6---x--6--5----|
|--7---7--7------7---7---x--7--7----|
|--7---7--7------7---7---x--7--7----|
|--5---5--5------5---5---x--5--5----|
|-----------------------------------|


  Dm            DsuDm         Dsus2Am
|--------------------------------|
|--------------------------------|
|-9-------------7--10---------7--|
|---7---10-(10)-------7---10-----|
|--------------------------------|
|--------------------------------|
|
|-5---x--5------5---5---x--5--5--|
|-6---x--6------5---6---x--6--5--|
|-7---x--7------7---7---x--7--7--|
|-7---x--7------7---7---x--7--7--|
|-5---x--5------5---5---x--5--5--|
|--------------------------------|


 6/8
|-------------------------|---------------------------|
|---------------5---------|-------5---------------5---|
|-----5-----7---------5---|---7---------5-----7-------|
|-7-----7-----7---7-----7-|-----7---7-----7-----7-----|
|---7-----7---------7-----|-7---------7-----7---------|
|-------------------------|---------------------------|
|
|-------------------------|---------------------------|
|-------------------------|---------------------------|
|-------5-----------5-----|-------5-----------5-------|
|-7-----------7-----------|-7-----------7-------------|
|-----3---5-------3---5---|-----3---5-------3---5-----|
|---5-------3---5-------3-|---5-------3---5-------3---|


 Verse
  Cm
 6/8
|--------------8-----------------|--------------------------------|
|----------8--------------8---11-|----------8---------------8-----|
|--------------------------------|--------------10--------------8-|
|-10---------8---10---------8----|-10---------8----10---------8---|
|-------10-------------10--------|-------10--------------10-------|
|----11-------------11-----------|----11--------------11----------|
|
|--------------------------------|--------------------------------|
|--------------------------------|--------------------------------|
|----------8--------------8------|----------8---------------8-----|
|-10-------------10--------------|-10--------------10-------------|
|--------6---8----------6---8----|--------6---8-----------6---8---|
|-----8--------6-----8---------6-|-----8---------6-----8--------6-|


 6/8
|--------------8-----------------|--------------------------------|
|----------8--------------8---11-|----------8---------------8-----|
|--------------------------------|--------------10--------------8-|
|-10---------8---10---------8----|-10---------8----10---------8---|
|-------10-------------10--------|-------10--------------10-------|
|----11-------------11-----------|----11--------------11----------|
|
|--------------------------------|--------------------------------|
|--------------------------------|--------------------------------|
|----------8--------------8------|----------8---------------8-----|
|-10-------------10--------------|-10--------------10-------------|
|--------6---8----------6---8----|--------6---8-----------6---8---|
|-----8--------6-----8---------6-|-----8---------6-----8--------6-|


  Fm
|-------------------------------------|-------------------------------------|
|-11-------13-------11-------13-------|-11-------13-------11-------13-------|
|----10-------10-------10-------10----|----10-------10-------10-------10----|
|-------10-------10-------10-------10-|-------10-------10-------10-------10-|
|-------------------------------------|-------------------------------------|
|-------------------------------------|-------------------------------------|
|
|-------------------------------------|-------------------------------------|
|--8--------9--------8--------9-------|--8--------9--------8--------9-------|
|-------------10----------------10----|-------------10----------------10----|
|-------------------------------------|-------------------------------------|
|-----8-11-------11-----8-11-------11-|-----8-11-------11-----8-11-------11-|
|-------------------------------------|-------------------------------------|


  Cm
 6/8
|--------------8-----------------|--------------------------------|
|----------8--------------8---11-|----------8---------------8-----|
|--------------------------------|--------------10--------------8-|
|-10---------8---10---------8----|-10---------8----10---------8---|
|-------10-------------10--------|-------10--------------10-------|
|----11-------------11-----------|----11--------------11----------|
|
|--------------------------------|--------------------------------|
|--------------------------------|--------------------------------|
|----------8--------------8------|----------8---------------8-----|
|-10-------------10--------------|-10--------------10-------------|
|--------6---8----------6---8----|--------6---8-----------6---8---|
|-----8--------6-----8---------6-|-----8---------6-----8--------6-|


  Gm
|-------------------------------------|-------------------------------------|
|-13-------15-------13-------15-------|-13-------15-------13-------15-------|
|----12-------12-------12-------12----|----12-------12-------12-------12----|
|-------12-------12-------12-------12-|-------12-------12-------12-------12-|
|-------------------------------------|-------------------------------------|
|-------------------------------------|-------------------------------------|
|
|-------------------------------------|-------------------------------------|
|-10-------11-------10-------11-------|-10-------11-------10-------11-------|
|-------------12----------------12----|-------------12----------------12----|
|-------------------------------------|-------------------------------------|
|----10-13-------13----10-13-------13-|----10-13-------13----10-13-------13-|
|-------------------------------------|-------------------------------------|


  Fm
|-------------------------------------|-------------------------------------|
|-11-------13-------11-------13-------|-11-------13-------11-------13-------|
|----10-------10-------10-------10----|----10-------10-------10-------10----|
|-------10-------10-------10-------10-|-------10-------10-------10-------10-|
|-------------------------------------|-------------------------------------|
|-------------------------------------|-------------------------------------|
|
|-------------------------------------|-------------------------------------|
|--8--------9--------8--------9-------|--8--------9--------8--------9-------|
|-------------10----------------10----|-------------10----------------10----|
|-------------------------------------|-------------------------------------|
|-----8-11-------11-----8-11-------11-|-----8-11-------11-----8-11-------11-|
|-------------------------------------|-------------------------------------|


  Cm
 6/8
|--------------8-----------------|--------------------------------|
|----------8--------------8---11-|----------8---------------8-----|
|--------------------------------|--------------10--------------8-|
|-10---------8---10---------8----|-10---------8----10---------8---|
|-------10-------------10--------|-------10--------------10-------|
|----11-------------11-----------|----11--------------11----------|
|
|--------------------------------|--------------------------------|
|--------------------------------|--------------------------------|
|----------8--------------8------|----------8---------------8-----|
|-10-------------10--------------|-10--------------10-------------|
|--------6---8----------6---8----|--------6---8-----------6---8---|
|-----8--------6-----8---------6-|-----8---------6-----8--------6-|


 Chorus
  Am
 7/8
|----------------------------|----------------------------|
|----------------------------|----------------------------|
|-9-------------7-9--------7-|-9-------------7-9--------7-|
|---7---10-(10)-----7---10---|---7---10-(10)-----7---10---|
|----------------------------|----------------------------|
|----------------------------|----------------------------|
|
|----------------------------|----------------------------|
|----------------------------|----------------------------|
|----------------------------|----------------------------|
|-7------5--(5)-7-7------5-7-|-7------5--(5)-7-7------5-7-|
|----------------------------|----------------------------|
|-----5---------------5------|-----5---------------5------|


  Dm/A
|------------------------------|
|------------------------------|
|-10-------------7-10--------7-|
|----7---10-(10)------7---10---|
|------------------------------|
|------------------------------|
|
|------------------------------|
|------------------------------|
|--7----------------7----------|
|---------5--(5)-7---------5-7-|
|------------------------------|
|------5----------------5------|


                                 Dm             DsuDm         Dsus2Dm
|------------------------------|---------------------------------|
|------------------------------|---------------------------------|
|-10-------------7-10--------7-|-10-------------7--10---------7--|
|----7---10-(10)------7---10---|----7---10-(10)-------7---10-----|
|------------------------------|---------------------------------|
|------------------------------|---------------------------------|
|
|------------------------------|--5---x--5------5---5---x--5--5--|
|------------------------------|--6---x--6------5---6---x--6--5--|
|--7----------------7----------|--7---x--7------7---7---x--7--7--|
|---------5--(5)-7---------5-7-|--7---x--7------7---7---x--7--7--|
|------------------------------|--5---x--5------5---5---x--5--5--|
|------5----------------5------|---------------------------------|


                 DsuDm         Dsus2
|-----------------------------------|
|-----------------------------------|
|-10-------------7--10---------7----|
|----7---10-(10)-------7---10-------|
|-----------------------------------|
|-----------------------------------|
|
|--5---x--5------5---5---x--5--5----|
|--6---x--6------5---6---x--6--5----|
|--7---x--7------7---7---x--7--7----|
|--7---x--7------7---7---x--7--7----|
|--5---x--5------5---5---x--5--5----|
|-----------------------------------|


  Em             EsuEm         Esus2Em             EsuEm         Esus2Dm
|---------------------------------|---------------------------------|
|---------------------------------|---------------------------------|
|-12-------------9--12---------9--|-12-------------9--12---------9--|
|----9---12-(12)-------9---12-----|----9---12-(12)-------9---12-----|
|---------------------------------|---------------------------------|
|---------------------------------|---------------------------------|
|
|--7---x--7------7---7---x--7--7--|--7---x--7------7---7---x--7--7--|
|--8---x--8------7---8---x--8--7--|--8---x--8------7---8---x--8--7--|
|--9---x--9------9---9---x--9--9--|--9---x--9------9---9---x--9--9--|
|--9---x--9------9---9---x--9--9--|--9---x--9------9---9---x--9--9--|
|--7---x--7------7---7---x--7--7--|--7---x--7------7---7---x--7--7--|
|---------------------------------|---------------------------------|


                 DsuDm         Dsus2
|-----------------------------------|
|-----------------------------------|
|-10-------------7--10---------7----|
|----7---10-(10)-------7---10-------|
|-----------------------------------|
|-----------------------------------|
|
|--5---5--5------5---5---x--5--5----|
|--6---6--6------5---6---x--6--5----|
|--7---7--7------7---7---x--7--7----|
|--7---7--7------7---7---x--7--7----|
|--5---5--5------5---5---x--5--5----|
|-----------------------------------|


  Dm            DsuDm         Dsus2Am
|--------------------------------|
|--------------------------------|
|-9-------------7--10---------7--|
|---7---10-(10)-------7---10-----|
|--------------------------------|
|--------------------------------|
|
|-5---x--5------5---5---x--5--5--|
|-6---x--6------5---6---x--6--5--|
|-7---x--7------7---7---x--7--7--|
|-7---x--7------7---7---x--7--7--|
|-5---x--5------5---5---x--5--5--|
|--------------------------------|


 6/8
|-------------------------|---------------------------|
|---------------5---------|-------5---------------5---|
|-----5-----7---------5---|---7---------5-----7-------|
|-7-----7-----7---7-----7-|-----7---7-----7-----7-----|
|---7-----7---------7-----|-7---------7-----7---------|
|-------------------------|---------------------------|
|
|-------------------------|---------------------------|
|-------------------------|---------------------------|
|-------5-----------5-----|-------5-----------5-------|
|-7-----------7-----------|-7-----------7-------------|
|-----3---5-------3---5---|-----3---5-------3---5-----|
|---5-------3---5-------3-|---5-------3---5-------3---|


 Guitar Solo
  F#5
 7/8
  Gtr II
|------------------------|------------------------|
|------------------------|------------------------|
|------------------------|------------------------|
|-4-4-x-4--4--4--x-4--4--|-4-4-x-4--4--4--x-4--4--|
|-4-4-x-4--4--4--x-4--4--|-4-4-x-4--4--4--x-4--4--|
|-2-2-x-2--2--2--x-2--2--|-2-2-x-2--2--2--x-2--2--|


  D/F#
|------------------------|------------------------|
|------------------------|------------------------|
|------------------------|------------------------|
|-4-4-x-4--4--4--x-4--4--|-4-4-x-4--4--4--x-4--4--|
|-5-5-x-5--5--5--x-5--5--|-5-5-x-5--5--5--x-5--5--|
|-2-2-x-2--2--2--x-2--2--|-2-2-x-2--2--2--x-2--2--|


  F#7
|------------------------|------------------------|
|------------------------|------------------------|
|------------------------|------------------------|
|-2-2-x-2--2--2--x-2--2--|-2-2-x-2--2--2--x-2--2--|
|-4-4-x-4--4--4--x-4--4--|-4-4-x-4--4--4--x-4--4--|
|-2-2-x-2--2--2--x-2--2--|-2-2-x-2--2--2--x-2--2--|


  F#5
|------------------------|------------------------|
|------------------------|------------------------|
|------------------------|------------------------|
|-4-4-x-4--4--4--x-4--4--|-4-4-x-4--4--4--x-4--4--|
|-4-4-x-4--4--4--x-4--4--|-4-4-x-4--4--4--x-4--4--|
|-2-2-x-2--2--2--x-2--2--|-2-2-x-2--2--2--x-2--2--|


  D5
|------------------------|------------------------|
|------------------------|------------------------|
|------------------------|------------------------|
|-7-7-x-7--7--7--x-7--7--|-7-7-x-7--7--7--x-7--7--|
|-5-5-x-5--5--5--x-5--5--|-5-5-x-5--5--5--x-5--5--|
|------------------------|------------------------|


  A5
|------------------------|------------------------|
|------------------------|------------------------|
|-9-9-x-9--9--9--x-9--9--|-9-9-x-9--9--9--x-9--9--|
|-7-7-x-7--7--7--x-7--7--|-7-7-x-7--7--7--x-7--7--|
|-7-7-x-7--7--7--x-7--7--|-7-7-x-7--7--7--x-7--7--|
|------------------------|------------------------|


  F#5
|-------------------------------|-------------------------------|
|-------------------------------|-------------------------------|
|-11-11-x-11--11--11--x-11--11--|-11-11-x-11--11--11--x-11--11--|
|-11-11-x-11--11--11--x-11--11--|-11-11-x-11--11--11--x-11--11--|
|--9--9-x--9---9---9--x--9---9--|--9--9-x--9---9---9--x--9---9--|
|-------------------------------|-------------------------------|


 Chorus
  Am
 7/8
  Gtr I
|----------------------------|----------------------------|
|----------------------------|----------------------------|
|-9-------------7-9--------7-|-9-------------7-9--------7-|
|---7---10-(10)-----7---10---|---7---10-(10)-----7---10---|
|----------------------------|----------------------------|
|----------------------------|----------------------------|
|
| Gtr II
|----------------------------|----------------------------|
|----------------------------|----------------------------|
|----------------------------|----------------------------|
|-7------5--(5)-7-7------5-7-|-7------5--(5)-7-7------5-7-|
|----------------------------|----------------------------|
|-----5---------------5------|-----5---------------5------|


  Dm/A
|------------------------------|
|------------------------------|
|-10-------------7-10--------7-|
|----7---10-(10)------7---10---|
|------------------------------|
|------------------------------|
|
|------------------------------|
|------------------------------|
|--7----------------7----------|
|---------5--(5)-7---------5-7-|
|------------------------------|
|------5----------------5------|


                                 Dm             DsuDm         Dsus2Dm
|------------------------------|---------------------------------|
|------------------------------|---------------------------------|
|-10-------------7-10--------7-|-10-------------7--10---------7--|
|----7---10-(10)------7---10---|----7---10-(10)-------7---10-----|
|------------------------------|---------------------------------|
|------------------------------|---------------------------------|
|
|------------------------------|--5---x--5------5---5---x--5--5--|
|------------------------------|--6---x--6------5---6---x--6--5--|
|--7----------------7----------|--7---x--7------7---7---x--7--7--|
|---------5--(5)-7---------5-7-|--7---x--7------7---7---x--7--7--|
|------------------------------|--5---x--5------5---5---x--5--5--|
|------5----------------5------|---------------------------------|
|
| Gtr III
|------------------------------|---------------------------------|
|------------------------------|----------------------5----------|
|------------------------------|---------------------------------|
|------------------------------|---------------------------------|
|------------------------------|---------------------------------|
|------------------------------|---------------------------------|


                  DsusDm         Dsus2
|-------------------------------------|
|-------------------------------------|
|-10--------------7---10---------7----|
|-----7---10-(10)--------7---10-------|
|-------------------------------------|
|-------------------------------------|
|
|--5----x--5------5----5---x--5--5----|
|--6----x--6------5----6---x--6--5----|
|--7----x--7------7----7---x--7--7----|
|--7----x--7------7----7---x--7--7----|
|--5----x--5------5----5---x--5--5----|
|-------------------------------------|
|
|-------------------------------------|
|-(5)---6--6--(6)-6-5-----------------|
|----------------------7--------------|
|------------------------7------------|
|-------------------------------------|
|-------------------------------------|


  Em             EsuEm         Esus2Em             EsuEm         Esus2Dm
|---------------------------------|---------------------------------|
|---------------------------------|---------------------------------|
|-12-------------9--12---------9--|-12-------------9--12---------9--|
|----9---12-(12)-------9---12-----|----9---12-(12)-------9---12-----|
|---------------------------------|---------------------------------|
|---------------------------------|---------------------------------|
|
|--7---x--7------7---7---x--7--7--|--7---x--7------7---7---x--7--7--|
|--8---x--8------7---8---x--8--7--|--8---x--8------7---8---x--8--7--|
|--9---x--9------9---9---x--9--9--|--9---x--9------9---9---x--9--9--|
|--9---x--9------9---9---x--9--9--|--9---x--9------9---9---x--9--9--|
|--7---x--7------7---7---x--7--7--|--7---x--7------7---7---x--7--7--|
|---------------------------------|---------------------------------|
|
|---------------------------------|---------------------------------|
|---------------------------------|---------------------------------|
|---------------------------------|---------------------------------|
|---------------------------------|---------------------------------|
|---------------------------------|---------------------------------|
|---------------------------------|---------------------------------|


                 DsuDm         Dsus2     Dm              DsusDm                Dsus2
|--------------------------------------|---------------------------------------------|
|--------------------------------------|---------------------------------------------|
|-10-------------7--10---------7-------|--9--------------7---10----------------7-----|
|----7---10-(10)-------7---10----------|-----7---10-(10)---------7-------10----------|
|--------------------------------------|---------------------------------------------|
|--------------------------------------|---------------------------------------------|
|
|--5---5--5------5---5---x--5--5-------|--5----x--5------5----5-----x-----5----5-----|
|--6---6--6------5---6---x--6--5-------|--6----x--6------5----6-----x-----6----5-----|
|--7---7--7------7---7---x--7--7-------|--7----x--7------7----7-----x-----7----7-----|
|--7---7--7------7---7---x--7--7-------|--7----x--7------7----7-----x-----7----7-----|
|--5---5--5------5---5---x--5--5-------|--5----x--5------5----5-----x-----5----5-----|
|--------------------------------------|---------------------------------------------|
|
|--------------------------------------|---------------------------------------------|
|--------------------------------8b10==|=(8)---8r====(8)---8--------8b10r(8)---------|
|--------------------------------------|-----------------9----9-(9)----------9-7-----|
|--------------------------------------|---------------------------------------------|
|--------------------------------------|---------------------------------------------|
|--------------------------------------|---------------------------------------------|


  Am
 7/8
  Gtr I
|----------------------------|----------------------------|
|----------------------------|----------------------------|
|-9-------------7-9--------7-|-9-------------7-9--------7-|
|---7---10-(10)-----7---10---|---7---10-(10)-----7---10---|
|----------------------------|----------------------------|
|----------------------------|----------------------------|
|
| Gtr II
|----------------------------|----------------------------|
|----------------------------|----------------------------|
|----------------------------|----------------------------|
|-7------5--(5)-7-7------5-7-|-7------5--(5)-7-7------5-7-|
|----------------------------|----------------------------|
|-----5---------------5------|-----5---------------5------|


  Dm/A
|------------------------------|
|------------------------------|
|-10-------------7-10--------7-|
|----7---10-(10)------7---10---|
|------------------------------|
|------------------------------|
|
|------------------------------|
|------------------------------|
|--7----------------7----------|
|---------5--(5)-7---------5-7-|
|------------------------------|
|------5----------------5------|


                                 Dm             DsuDm         Dsus2Dm
|------------------------------|---------------------------------|
|------------------------------|---------------------------------|
|-10-------------7-10--------7-|-10-------------7--10---------7--|
|----7---10-(10)------7---10---|----7---10-(10)-------7---10-----|
|------------------------------|---------------------------------|
|------------------------------|---------------------------------|
|
|------------------------------|--5---x--5------5---5---x--5--5--|
|------------------------------|--6---x--6------5---6---x--6--5--|
|--7----------------7----------|--7---x--7------7---7---x--7--7--|
|---------5--(5)-7---------5-7-|--7---x--7------7---7---x--7--7--|
|------------------------------|--5---x--5------5---5---x--5--5--|
|------5----------------5------|---------------------------------|


                 DsuDm         Dsus2
|-----------------------------------|
|-----------------------------------|
|-10-------------7--10---------7----|
|----7---10-(10)-------7---10-------|
|-----------------------------------|
|-----------------------------------|
|
|--5---x--5------5---5---x--5--5----|
|--6---x--6------5---6---x--6--5----|
|--7---x--7------7---7---x--7--7----|
|--7---x--7------7---7---x--7--7----|
|--5---x--5------5---5---x--5--5----|
|-----------------------------------|


  Em             EsuEm         Esus2Em             EsuEm         Esus2Dm
|---------------------------------|---------------------------------|
|---------------------------------|---------------------------------|
|-12-------------9--12---------9--|-12-------------9--12---------9--|
|----9---12-(12)-------9---12-----|----9---12-(12)-------9---12-----|
|---------------------------------|---------------------------------|
|---------------------------------|---------------------------------|
|
|--7---x--7------7---7---x--7--7--|--7---x--7------7---7---x--7--7--|
|--8---x--8------7---8---x--8--7--|--8---x--8------7---8---x--8--7--|
|--9---x--9------9---9---x--9--9--|--9---x--9------9---9---x--9--9--|
|--9---x--9------9---9---x--9--9--|--9---x--9------9---9---x--9--9--|
|--7---x--7------7---7---x--7--7--|--7---x--7------7---7---x--7--7--|
|---------------------------------|---------------------------------|
|
| Gtr III
|---------------------------------|---------------------------------|
|---------------------------------|---------------------------------|
|---------------------------------|---------------------------------|
|---------------------------------|---------------------------------|
|---------------------------------|---------------------------------|
|---------------------------------|---------------------------------|


                 DsuDm         Dsus2    Dm               DsusDm                Dsus2
|-------------------------------------|----------------------------------------------|
|-------------------------------------|----------------------------------------------|
|-10-------------7--10---------7------|--9---------------7---10----------------7-----|
|----7---10-(10)-------7---10---------|-----7---10--(10)---------7-------10----------|
|-------------------------------------|----------------------------------------------|
|-------------------------------------|----------------------------------------------|
|
|--5---5--5------5---5---x--5--5------|--5----x--5-------5----5-----x-----5----5-----|
|--6---6--6------5---6---x--6--5------|--6----x--6-------5----6-----x-----6----5-----|
|--7---7--7------7---7---x--7--7------|--7----x--7-------7----7-----x-----7----7-----|
|--7---7--7------7---7---x--7--7------|--7----x--7-------7----7-----x-----7----7-----|
|--5---5--5------5---5---x--5--5------|--5----x--5-------5----5-----x-----5----5-----|
|-------------------------------------|----------------------------------------------|
|
|-------------------------------------|----------------------------------------------|
|------------------------------8b10===|=(8)---8r(8)--(8)---8--------8b10r(8)---------|
|-------------------------------------|------------------9----9-(9)----------9-7-----|
|-------------------------------------|----------------------------------------------|
|-------------------------------------|----------------------------------------------|
|-------------------------------------|----------------------------------------------|


   Outro
    Am
   6/8
                                                       8x
||--------------------------|--------------------------||
||o---------------5---------|-------5---------------5-o||
||------5-----7---------5---|---7---------5-----7------||
||--7-----7-----7---7-----7-|-----7---7-----7-----7----||
||o---7-----7---------7-----|-7---------7-----7-------o||
||--------------------------|--------------------------||
|
|                                                      8x
||--------------------------|--------------------------||
||o-------------------------|-------------------------o||
||--------5-----------5-----|-------5-----------5------||
||--7-----------7-----------|-7-----------7------------||
||o-----3---5-------3---5---|-----3---5-------3---5---o||
||----5-------3---5-------3-|---5-------3---5-------3--||
Добавлено: 17.03.2012
Другие материалы по этой песне:

Страница создана 17.03.2012
http://primanota.ru/king-crimson/three-of-a-perfect-pair-chords.htm
Привет, Гость.
Предлагаем пройти революционный курс по гитаре.
Подарок от PrimaNota.Ru, забирай!