PrimaNota.ru - самый крупный в мире бесплатный архив песенных текстов, аккордов, табулатур и нот


King Crimson - The Court Of The Crimson King - текст песни, таба, бас-таба, видео

Регистрация Запомнить меня
Войти через:  Facebook Google Twitter Vk Yandex Mail.ru

King Crimson - The Court Of The Crimson King - текст песни, таба, бас-таба, видео

Печатать
Просмотров: 128
THE COURT OF THE CRIMSON KING

As recorded by King Crimson
(From the 1969 Album IN THE COURT OF THE CRIMSON KING)

Words and Music by Ian McDonald & Peter Sinfield

Transcribed by Slowhand


Gtr I (E A D G B E) - 'Ian McDonald - Mellotron'
Gtr II (E A D G B E) - 'Robert Fripp - Acoustic Guitar'
Gtr III (E A D G B E) - 'Robert Fripp - Electric Guitar'
Gtr IV (E A D G B E) - 'Ian McDonald - Flute'


 Intro
  Q=68
  N.C.       D              C                   B7sus4    B
 4/4
  Gtr I (Mellotron arr. for Gtr.)
  W           W              +Q.     E  H        Q.     E  H
|----------|-14-----------|-(14)----15-12-----|-12-----14-11-----|
|----------|--------------|-------------------|------------------|
|----------|-11-----------|-(11)----12--9-----|--9-----11--8-----|
|----------|--------------|-------------------|------------------|
|----------|--------------|-------------------|------------------|
|----------|--------------|-------------------|------------------|
|
| Gtr II (Ac. Gtr.)
| W           Q  Q  Q  Q      Q   Q     Q  Q     Q   Q     Q  Q
|----------|--5--5--5--5--|---3---3-----3--3--|--2---2-----2--2--|
|----------|--7--7--7--7--|---5---5-----5--5--|--5---5-----4--4--|
|----------|--7--7--7--7--|---5---5-----5--5--|--2---2-----4--4--|
|----------|--7--7--7--7--|---5---5-----5--5--|--4---4-----4--4--|
|----------|--5--5--5--5--|---3---3-----3--3--|--2---2-----2--2--|
|----------|--------------|-------------------|------------------|


                                   D
   E.  S  +E   E  +E   E  +E   E    W
|-------------11-(11)-12-(12)-13-|-14-----------|
|-12--14-(14)--------------------|--------------|
|--------------8--(8)--9--(9)-10-|-11-----------|
|--9--11-(11)--------------------|--------------|
|--------------------------------|--------------|
|--------------------------------|--------------|
|
|  W                                Q  Q  Q  Q
|--2-----------------------------|--5--5--5--5--|
|--4-----------------------------|--7--7--7--7--|
|--4-----------------------------|--7--7--7--7--|
|--4-----------------------------|--7--7--7--7--|
|--2-----------------------------|--5--5--5--5--|
|--------------------------------|--------------|


  C                   B7sus4    B
   +Q.     E  H        Q.     E  H
|-(14)----15-12-----|-12-----14-11-----|
|-------------------|------------------|
|-(11)----12--9-----|--9-----11--8-----|
|-------------------|------------------|
|-------------------|------------------|
|-------------------|------------------|
|
|   Q   Q     Q  Q     Q   Q     Q  Q
|---3---3-----3--3--|--2---2-----2--2--|
|---5---5-----5--5--|--5---5-----4--4--|
|---5---5-----5--5--|--2---2-----4--4--|
|---5---5-----5--5--|--4---4-----4--4--|
|---3---3-----3--3--|--2---2-----2--2--|
|-------------------|------------------|


              1st Verse
               Q=65
               N.C.
   W           W
|-----------||---------------------|
|-12--------||---------------------|
|-----------||---------------------|
|--9--------||---------------------|
|-----------||---------------------|
|-----------||---------------------|
|
|  W           E   E  E E  H
|--2--------||---<12>--------------|
|--4--------||--------7------------|
|--4--------||---<12>--------------|
|--4--------||----------9-10-------|
|--2--------||---------------------|
|-----------||-0----------(0)-0----|
               H          +E  Q.


    W                    W
|----------------------|---------------------|
|----------------------|---------------------|
|----------------------|---------------------|
|----------------------|---------------------|
|----------------------|---------------------|
|----------------------|---------------------|
|
|   E    E  E  E  H      E   E  E E  H
|------<12>------------|---<12>--------------|
|-----------7----------|--------7------------|
|------<12>------------|---<12>--------------|
|-------------11-10----|----------9-10-------|
|----------------------|---------------------|
|-<12>-----------------|-0----------(0)-0----|
    W                    H          +E  Q.


  Gtr II
    E    E  E.  S  H       S     S S S S S  S     S   S  S S S S S  S    S
|------<12>-------------|--------------0-----------------------0--------------|
|-----------7-----------|------------0---0-------------------0---0------------|
|------<12>-------------|----------5--------5--------------5--------5---------|
|--------------11-10----|--------2----------------2------3---------------3----|
|-----------------------|--0--------------------------0-----------------------|
|-<12>------------------|-----------------------------------------------------|
|   W
|
| Gtr IV (Flute arr. for Gtr.)
|                                                     ~~~~
|                                                                   |---3---|
|   W                      Q.               E        +Q.            S  S    S
|-----------------------|-12tr14-----------17tr19---(17)-----------22-21---20-|
|-----------------------|-----------------------------------------------------|
|-----------------------|-----------------------------------------------------|
|-----------------------|-----------------------------------------------------|
|-----------------------|-----------------------------------------------------|
|-----------------------|-----------------------------------------------------|


   S     S S S S S S S  S    S     S     S   S  S  S     S
|--------------0-----------------------------0-------------|
|------------0---0-----------------------0------0----------|
|----------5-------5---------------5---------------5-------|
|--------4-----------4-------3---------------------------3-|
|--0--------------------0----------------------------------|
|----------------------------------------------------------|
|
|                       |---3---|
|  H                    S  S    S  E        +E     E
|-19tr21---------------22-19-------------------------------|
|------------------------------20-18tr19---(18)---17tr18---|
|----------------------------------------------------------|
|----------------------------------------------------------|
|----------------------------------------------------------|
|----------------------------------------------------------|


                           Q=56
                          2/4
    E    E  E E  H           E    Q.
|------<12>--------------|------<12>---|
|-----------7------------|-------------|
|------<12>--------------|------<12>---|
|-------------9-10-------|-------------|
|------------------------|-------------|
|---0-----------(0)-0----|-<12>--------|
|   H           +E  Q.       H
|
|   ~~~~
|  +H            H           W
|------------------------|-------------|
|-(17)-------------------|-------------|
|------------------------|-------------|
|------------------------|-------------|
|------------------------|-------------|
|------------------------|-------------|


   Interlude
    Q=68
    $
    D              C
   4/4
    Gtr I
     W              +Q.     E  H
||--14-----------|-(14)----15-12-----|
||o--------------|-------------------|
||--11-----------|-(11)----12--9-----|
||---------------|-------------------|
||o--------------|-------------------|
||---------------|-------------------|
|
|   Gtr II
|    Q  Q  Q  Q      Q   Q     Q  Q
||---5--5--5--5--|---3---3-----3--3--|
||o--7--7--7--7--|---5---5-----5--5--|
||---7--7--7--7--|---5---5-----5--5--|
||---7--7--7--7--|---5---5-----5--5--|
||o--5--5--5--5--|---3---3-----3--3--|
||---------------|-------------------|


  B7sus4    B
   Q.     E  H        E. S +E   E  +E   E  +E   E
|-12-----14-11-----|-----9-(9)-11-(11)-12-(12)-13--|
|------------------|-12----------------------------|
|--9-----11--8-----|-----6-(6)--8--(8)--9--(9)-10--|
|------------------|--9----------------------------|
|------------------|-------------------------------|
|------------------|-------------------------------|
|
|  Q   Q     Q  Q     W
|--2---2-----2--2--|--2----------------------------|
|--5---5-----4--4--|--4----------------------------|
|--2---2-----4--4--|--4----------------------------|
|--4---4-----4--4--|--4----------------------------|
|--2---2-----2--2--|--2----------------------------|
|------------------|-------------------------------|


                                                       1.
                                              To Coda
  D              C                   B7sus4    B
   W              +Q.     E  H        Q.     E  H        W
|-14-----------|-(14)----15-12-----|-12-----14-11-----|-------||
|--------------|-------------------|------------------|-12----||
|-11-----------|-(11)----12--9-----|--9-----11--8-----|-------||
|--------------|-------------------|------------------|--9----||
|--------------|-------------------|------------------|-------||
|--------------|-------------------|------------------|-------||
|
|  Q  Q  Q  Q      Q   Q     Q  Q     Q   Q     Q  Q     W
|--5--5--5--5--|---3---3-----3--3--|--2---2-----2--2--|--2----||
|--7--7--7--7--|---5---5-----5--5--|--5---5-----4--4--|--4----||
|--7--7--7--7--|---5---5-----5--5--|--2---2-----4--4--|--4----||
|--7--7--7--7--|---5---5-----5--5--|--4---4-----4--4--|--4----||
|--5--5--5--5--|---3---3-----3--3--|--2---2-----2--2--|--2----||
|--------------|-------------------|------------------|-------||


 2nd & 3rd Verses
  Q=67
  N.C.
  Gtr II
  E   E  E E  H           E    E  E  E  H
|---<12>--------------|------<12>------------|
|--------7------------|-----------7----------|
|---<12>--------------|------<12>------------|
|----------9-10-------|-------------11-10----|
|---------------------|----------------------|
|-0----------(0)-0----|-<12>-----------------|
  H          +E  Q.       W


  E   E  E E  H           E    E  H.
|---<12>--------------|------<12>-------|
|--------7------------|-----------7-----|
|---<12>--------------|------<12>-------|
|----------9-10-------|-----------------|
|---------------------|-----------------|
|-0----------(0)-0----|-<12>------------|
  H          +E  Q.       W


  S S S S S S S S S S S S S S S S   S S S S S S S S S S S S S S S S
|---------0---------------0-------|---------0---------------0-------|
|-------0---0-----------0---0-----|-------0---0-----------0---0-----|
|-----5-------5-------5-------5---|-----5-------5-------5-------5---|
|---2-----------2---3-----------3-|---4-----------4---3-----------3-|
|-0---------------0---------------|-0---------------0---------------|
|---------------------------------|---------------------------------|


                       2/4
  Gtr I
  W                       W
|---------------------|--------------||
|---------------------|-------------o||
|---------------------|--------------||
|---------------------|--------------||
|---------------------|-------------o||
|---------------------|--------------||
|
| Gtr II
| E   E  E E  H           E    Q.
|---<12>--------------|------<12>----||
|--------7------------|-------------o||
|---<12>--------------|------<12>----||
|----------9-10-------|--------------||
|---------------------|-------------o||
|-0----------(0)-0----|-<12>---------||
  H          +E  Q.       H


                                     Interlude
 2.
  B                                   N.C.
 4/4
   E.    S  +E   E  +E   E  +E   E     H     +Q.    E    Q   Q   +H
|---------------11-(11)-12-(12)-13-||-14----(14)---15-|-17--10--(10)----|
|-12----14-(14)--------------------||-----------------|-----------------|
|----------------8--(8)--9--(9)-10-||-11----(11)---12-|-14---7---(7)----|
|--9----11-(11)--------------------||-----------------|-----------------|
|----------------------------------||-----------------|-----------------|
|----------------------------------||-----------------|-----------------|
|
|  e  e      e   e   e   e   e   e     W                 W
|--7--7------7---7---7---7---7---7-||-----------------|-----------------|
|--7--7------7---7---7---7---7---7-||-----------------|-----------------|
|--8--8------8---8---8---8---8---8-||-----------------|-----------------|
|--9--9------9---9---9---9---9---9-||-----------------|-----------------|
|----------------------------------||-----------------|-----------------|
|----------------------------------||-----------------|-----------------|


   Q.    E  Q   Q     H     +E   E  +E   E    H     +Q.    E    Q   Q   +H
|-14----15-17--22--|-20----(20)-15-(15)-17-|-14----(14)---15-|-17--10--(10)----|
|------------------|-----------------------|-----------------|-----------------|
|-11----12-14--19--|-17----(17)-12-(12)-14-|-11----(11)---12-|-14---7---(7)----|
|------------------|-----------------------|-----------------|-----------------|
|------------------|-----------------------|-----------------|-----------------|
|------------------|-----------------------|-----------------|-----------------|


                                      D.S. al Coda
   Q.    E  Q   Q     W           W            W
|-14----15-17--22--|-24--------|-23--------|-(23)-----||
|------------------|-----------|-----------|--24------||
|-11----12-14--19--|-21--------|-20--------|----------||
|------------------|-----------|-----------|----------||
|------------------|-----------|-----------|----------||
|------------------|-----------|-----------|----------||


              Flute & Guitar Solo
               Q=70
  &
               N.C.
               Gtr IV
   W            H..        E    Q   H.         Q.    E  Q   Q
|-----------||---------------|--------------|--------------22--|
|-12--------||-19---------20-|-22-----------|-19----20-22------|
|-----------||---------------|-----19-------|------------------|
|--9--------||---------------|--------------|------------------|
|-----------||---------------|--------------|------------------|
|-----------||---------------|--------------|------------------|
|
| Gtr II
|  W            W               W              W
|--2--------||---------------|--------------|------------------|
|--4--------||---------------|--------------|------------------|
|--4--------||---------------|--------------|------------------|
|--4--------||---------------|--------------|------------------|
|--2--------||---------------|--------------|------------------|
|-----------||---------------|--------------|------------------|


  Gtr III (El. Gtr.)
   W                          W
|--------------------------|--------------------------------------|
|--------------------------|--------------------------------------|
|--------------------------|--------------------------------------|
|--------------------------|--------------------------------------|
|--------------------------|--------------------------------------|
|--------------------------|--------------------------------------|
|
| Gtr IV
|                                                      |--3--|
|  H    E  S  S  S  S S  S    Q       E.  T  T  Q   S  T  T  T  E
|-20------19-20----19------|--------------------------------------|
|---------------22------20-|-19tr21--17--19-17-15-----15-------13-|
|--------------------------|-----------------------17----17-16----|
|--------------------------|--------------------------------------|
|--------------------------|--------------------------------------|
|--------------------------|--------------------------------------|


    E            S  S  S  S  S  S  S  S  S  S  Q
|--------------------------------------------------------|
|--------------------------------------------------------|
|----------------------------9-11-12-11-12-11------------|
|------------------------10------------------------------|
|---------------------10---------------------------------|
|----------------8-12------------------------------------|
|
|       |--3--|                                |--3--|
|  +S   T  T  T  S  S  S  S  S  S  S  S  S  S  E  E  E
|--------------------------------------------------------|
|-(13)----------------------------------------10-12-12---|
|------14-16-14-12-11-12-11-12----------11-12------------|
|------------------------------14-12-14------------------|
|--------------------------------------------------------|
|--------------------------------------------------------|


   S     S     S  S   S   E    S  +Q.                   S     S
|-----------------------------10-(10)------------------------------|
|------------------------------------------------------------------|
|-11s===12----11s12--12s=11----------------------------11s===12----|
|------------------------------------------------------------------|
|------------------------------------------------------------------|
|------------------------------------------------------------------|
|
|  T  T  T  T  E     +E     E      T   T  T  T  E  +E   T  T  T  T
|------------------------------------------------------------------|
|-12-13-12-10-12----(12)----------10--12-10----10-(10)----10-------|
|-------------------------------------------12---------12----12-11-|
|------------------------------------------------------------------|
|------------------------------------------------------------------|
|------------------------------------------------------------------|


   S  S  S  S  S  S  E     +Q      E  T  T  T  T
|-------------------12----(12)-------14h15p14p12-|
|------------------------------------------------|
|-11s12-11s12-11s12------------------------------|
|------------------------------------------------|
|------------------------------------------------|
|------------------------------------------------|
|
|  S  S  S  S  S  S  S  S   e   Q.
|----------------------15--17--22----------------|
|-------12-13-15-17-19---------------------------|
|-12-14------------------------------------------|
|------------------------------------------------|
|------------------------------------------------|
|------------------------------------------------|


    S   S  S  S  H.
|--14-----------14-----------------------------------------|
|----------------------------------------------------------|
|------14----14--------------------------------------------|
|---------12-----------------------------------------------|
|----------------------------------------------------------|
|----------------------------------------------------------|
|
|                |--3---|  |--3--|                 |--3--|
|  +S   S  S  S  E   E  E  E  E  E  T  T  T  T  S  T  T  T
|-(22)-20-19-20-----19-------------------------------------|
|---------------22-----20-22-19-20----19-------------------|
|----------------------------------21----21-19-------------|
|----------------------------------------------22-21-22-21-|
|----------------------------------------------------------|
|----------------------------------------------------------|


                            |3-|
   +Q.                   S  S  T  Q      Q
|-(14)---------------------15----12---------|
|---------------------------------------13--|
|-----------------------------12------------|
|---------------------------------------14--|
|-------------------------------------------|
|-------------------------------------------|
|
|         |--3--|
|   S   S S  S  S  S  S  S  S     e  Q.
|--------------------------12----14-22------|
|--10--12---------12-13-15------------------|
|-----------12-14---------------------------|
|-------------------------------------------|
|-------------------------------------------|
|-------------------------------------------|


    E         S     S     H.
|------------------------14---------------------------------------|
|-----------------------------------------------------------------|
|------------------14---------------------------------------------|
|------------12---------------------------------------------------|
|-----------------------------------------------------------------|
|-----------------------------------------------------------------|
|
|   |--------6---------|       |------6-------|  |------6-------|
|  +S   S  S  S  S     S  Q    S  S  S  S  S  S  S  S  S  S  S  S
|-(22)-20-19-20-------20------------------------------------------|
|---------------22-------20---19-20-17-19-------------------------|
|-----------------------------------------19-17----17-------------|
|-----------------------------------------------21----19-21-17-19-|
|-----------------------------------------------------------------|
|-----------------------------------------------------------------|


       |---3----|
   E   S  S     S     Q           E           E   E      E       E     S  S  E     E     S  S  S S  Q
|-----12------------------------------------------------------|-------14-10----------------------------------|
|--------13---------------------------------------------------|-------------10-------------------------------|
|--------------12s===11----------11----------12--11-----12----|-------------------11-------------------------|
|-------------------------------------------------------------|-------------------------12-------------------|
|-------------------------------------------------------------|----------------------------12----------------|
|-------------------------------------------------------------|-------------------------------14---10--------|
|
|            |-----3-----|                                                   |---3----|
|  E.        S     S     S  E  S  T  T  T  T  E  +S   S  S  S    S  S  S  S  E  E     E  Q          E.  S
|-------------------------------------------------------------|----------------------22-22-------------22----|
|-------------------------------------------------------------|----------19-20-22----------------------------|
|-------------------------------------------------------------|----19-21-------------------------------------|
|-----------------19----------------17-19-17---------17-19-21-|-22-------------------------------------------|
|-21--------22----------22-21-22-21----------21-(21)----------|----------------------------------------------|
|-------------------------------------------------------------|----------------------------------------------|


    E   S  S  S  S    S     S  S  S     E        Q
|-----------------------------------------------12-------|
|--------------------------------------------------------|
|---------------------9----11-12-11----12----------------|
|---------------10---------------------------------------|
|------------10------------------------------------------|
|-------8-12---------------------------------------------|
|
|             |----3-----|     |---------6----------|
|  +E   S  S  E     E    E     E     E     S  S  S  E  E
|-(22)-20-19-20----22---23----22----20----19-20-19----19-|
|--------------------------------------------------22----|
|--------------------------------------------------------|
|--------------------------------------------------------|
|--------------------------------------------------------|
|--------------------------------------------------------|


   E           S  S  S     S     S        S     S     S     E           E         E
|----------------------------------------------------------10----------14--------17------|
|----------------------------------------------------10----------------------------------|
|----------------------------------------------11----------------------------------------|
|-------------------------------12-------------------------------------------------------|
|-------------------------12-------------------------------------------------------------|
|-------------10-14----------------------------------------------------------------------|
|
|  |--3--|           |---3----|  |--3--|  |---------6----------|  |--------6--------|
|  T  T  T  S  S  S  S  S     S  T  T  T  S  S     S  S  S     S  S  S     S S S    S S
|----17-------15-15-14-------12----------------------------------------------------------|
|-20----20-19----------15-------13----13----12----12-10-------------------------------7--|
|----------------------------------16----14-------------11----12----11-------9-7----9----|
|----------------------------------------------------------------14-------12-------------|
|----------------------------------------------------------------------------------------|
|----------------------------------------------------------------------------------------|


   E.        S  +S   S  E     E  E   E         E
|-17--------14-(14)-15p14------------------------|
|-------------------------------15--13-----------|
|----------------------------17---------------12-|
|------------------------------------------------|
|------------------------------------------------|
|------------------------------------------------|
|
|                                    |--3---|
|  S   S  S  S   S   S  S  S  e  E  +S   S  S  E
|-------------------------------22-(22)-20-19-20-|
|-------------------17-19-20-22------------------|
|--------16-17--19-------------------------------|
|-17--19-----------------------------------------|
|------------------------------------------------|
|------------------------------------------------|


   S     S     E        +H                                    Q
|-------------------------------------------------------------------------------|
|-------------------------------------------------------------------------------|
|-12s===11---------------------------------------------------11-----------------|
|-------------------------------------------------------------------------------|
|-------------12-------(12)-----------------------------------------------------|
|-------------------------------------------------------------------------------|
|
|  |--------6--------|   |-------6-------|  |------6-------|  |------6-------|
|  S  S     S  S  S  S   S   S  S  S  S  S  S  S  S  S  S  S  S  S  S  S  S  S
|-22-20----19-20-19-17--22--20-19-20-19-17-22-20-19-20-19-17-22-20-19-20-19-17--|
|-------------------------------------------------------------------------------|
|-------------------------------------------------------------------------------|
|-------------------------------------------------------------------------------|
|-------------------------------------------------------------------------------|
|-------------------------------------------------------------------------------|


  Gtr I
   W
|-------------------------------------------------------------------------|
|-------------------------------------------------------------------------|
|-------------------------------------------------------------------------|
|-------------------------------------------------------------------------|
|-------------------------------------------------------------------------|
|-------------------------------------------------------------------------|
|
| Gtr III
|  Q                 Q                 E        E        E        E
|-------------------------------------------------------12-------15-------|
|----------------------------------------------13-------------------------|
|-12----------------------------------12----------------------------------|
|-------------------14----------------------------------------------------|
|-------------------------------------------------------------------------|
|-------------------------------------------------------------------------|
|
| Gtr IV
|  |------6-------|  |------6-------|  |------6-------|  |------6-------|
|  S  S  S  S  S  S  S  S  S  S  S  S  S  S  S  S  S  S  S  S  S  S  S  S
|-22-20-19-20-19-17-22-20-19-20-19-17-22-20-19-20-19-17-19-17-15-17-15-17-|
|-------------------------------------------------------------------------|
|-------------------------------------------------------------------------|
|-------------------------------------------------------------------------|
|-------------------------------------------------------------------------|
|-------------------------------------------------------------------------|


  F#sus4
    W
|---7------------------------------------------------------------------------|
|---7------------------------------------------------------------------------|
|---4------------------------------------------------------------------------|
|---4------------------------------------------------------------------------|
|----------------------------------------------------------------------------|
|----------------------------------------------------------------------------|
|
|  +E         E        E        E        E        E        E        E
|-(15)-----------------------------------------------------------------------|
|------------12--------------------------------------------------------------|
|---------------------11-------12-------11-------12-------11-------12--------|
|----------------------------------------------------------------------------|
|----------------------------------------------------------------------------|
|----------------------------------------------------------------------------|
|
|   |-------6-------|  |------6-------|  |------6-------|  |------6-------|
|   S   S  S  S  S  S  S  S  S  S  S  S  S  S  S  S  S  S  S  S  S  S  S  S
|--23--21-19-21-19-21-23-21-19-21-19-21-23-21-19-21-19-21-23-21-19-21-19-21--|
|----------------------------------------------------------------------------|
|----------------------------------------------------------------------------|
|----------------------------------------------------------------------------|
|----------------------------------------------------------------------------|
|----------------------------------------------------------------------------|


                                           Q=70
                                             Em
  +W                                          W
|-(7)--------------------------------------|----------------------------------|
|-(7)--------------------------------------|--5-------------------------------|
|-(4)--------------------------------------|--4-------------------------------|
|-(4)--------------------------------------|--5-------------------------------|
|------------------------------------------|--7-------------------------------|
|------------------------------------------|----------------------------------|
|
| Gtr II
|  S  S  S S  S S  S S  S S  S S  S S  S S    S S S S S S S S S S S S S S S S
|------------------------------------------|----------------------------------|
|----------4---------4---------4-----------|----------0---------------0-------|
|--------4----4----4---------4----4----4---|--------0---0-----------0---0-----|
|-----4---------4---------4---------4----4-|------4-------4-------4-------4---|
|--2--------------------2------------------|----2-----------2---3-----------3-|
|------------------------------------------|--0---------------0---------------|
|
| Gtr III
|  E     E    E    E    E    E    E    E      W
|------------------------------------------|----------------------------------|
|------------------------------------------|----------------------------------|
|-11----12---11---12---11---12---11---12---|-^0-------------------------------|
|------------------------------------------|-^2-------------------------------|
|------------------------------------------|-^2-------------------------------|
|------------------------------------------|-^0-------------------------------|


                                      4th Verse
                                       N.C.
  +W                                   W
|-----------------------------------||---------------------------------|
|-(5)-------------------------------||---------------------------------|
|-(4)-------------------------------||---------------------------------|
|-(5)-------------------------------||---------------------------------|
|-(7)-------------------------------||---------------------------------|
|-----------------------------------||---------------------------------|
|
|  S  S S S S S S S S S S S S S S S    S S S S S S S S S S S S S S S S
|-----------------------------------||---------------------------------|
|-----------0---------------0-------||-----------0---------------0-----|
|---------0---0-----------0---0-----||-----0---0---0-------0---0---0---|
|-------4-------4-------4-------4---||-------4-------4-------4-------4-|
|-----4-----------4---3-----------3-||---2---------------3-------------|
|--0----------------0---------------||-0---------------0---------------|


  Gtr II
  S S S S S S S S S S S S S S S S   S S S S S S S S S S S S S S S S
|---------------------------------|---------------------------------|
|-----------0---------------0-----|-----------0---------------0-----|
|-----0---0---0-------0---0---0---|-----0---0---0-------0---0---0---|
|-------4-------4-------4-------4-|-------4-------4-------4-------4-|
|---4---------------3-------------|---2---------------3-------------|
|-0---------------0---------------|-0---------------0---------------|


                                    Esus4
  Gtr I
  W                                 W
|---------------------------------|-5-------------------------------|
|---------------------------------|-5-------------------------------|
|---------------------------------|-2-------------------------------|
|---------------------------------|-2-------------------------------|
|---------------------------------|---------------------------------|
|---------------------------------|---------------------------------|
|
| Gtr II
| S S S S S S S S S S S S S S S S   S S S S S S S S S S S S S S S S
|---------------------------------|---------0---------------0-------|
|-----------0---------------0-----|-------0---0-----------0---0-----|
|-----0---0---0-------0---0---0---|-----5-------5-------5-------5---|
|-------4-------4-------4-------4-|---2-----------2---3-----------3-|
|---4---------------3-------------|-0---------------0---------------|
|-0---------------0---------------|---------------------------------|


  +H                   H                     W
|-(5)--------------------------------------|---------------------------------|
|-(5)--------------------------------------|---------------------------------|
|-(2)--------------------------------------|---------------------------------|
|-(2)--------------------------------------|---------------------------------|
|------------------------------------------|---------------------------------|
|------------------------------------------|---------------------------------|
|
|  S  S S  S S  S S  S S  S S  S S  S S  S   S S S S S S S S S S S S S S S S
|------------0-------------------0---------|---------------------------------|
|----------0----0--------------0----0------|-----------0---------------0-----|
|-------5---------5---------5---------5----|-----0---0---0-------0---0---0---|
|-----4--------------4----3--------------3-|-------4-------4-------4-------4-|
|--0-------------------0-------------------|---2---------------3-------------|
|------------------------------------------|-0---------------0---------------|
|
| Gtr III
|  E    S  S S  S S  S S  S S  S S  S S  S   W
|------------------------------------------|---------------------------------|
|------------------------------------------|---------------------------------|
|---------10p9h10p9h10p9h10p9h10p9h10p9h10-|---------------------------------|
|------------------------------------------|---------------------------------|
|------------------------------------------|---------------------------------|
|------------------------------------------|---------------------------------|


                     Interlude
  Q=62                Q=71
                      D              C                   B7sus4    B
 2/4                 4/4
  W                    W              +Q.     E  H        Q.     E  H
|-----------------||--14-----------|-(14)----15-12-----|-12-----14-11------|
|-----------------||o--------------|-------------------|-------------------|
|-----------------||--11-----------|-(11)----12--9-----|--9-----11--8------|
|-----------------||---------------|-------------------|-------------------|
|-----------------||o--------------|-------------------|-------------------|
|-----------------||---------------|-------------------|-------------------|
|
| S S S S S S S S      Q  Q  Q  Q      Q   Q     Q  Q     Q   Q     Q  Q
|-----------------||---5--5--5--5--|---3---3-----3--3--|--2---2-----2--2---|
|-----------0-----||o--7--7--7--7--|---5---5-----5--5--|--5---5-----4--4---|
|-----0---0---0---||---7--7--7--7--|---5---5-----5--5--|--2---2-----4--4---|
|-------4-------4-||---7--7--7--7--|---5---5-----5--5--|--4---4-----4--4---|
|---4-------------||o--5--5--5--5--|---3---3-----3--3--|--2---2-----2--2---|
|-0---------------||---------------|-------------------|-------------------|


  1.,2.
   E.  S  +E   E  +E   E  +E   E  3x
|-------------11-(11)-12-(12)-13--||
|-12--14-(14)--------------------o||
|--------------8--(8)--9--(9)-10--||
|--9--11-(11)---------------------||
|--------------------------------o||
|---------------------------------||
|
|  W                              3x
|--2------------------------------||
|--4-----------------------------o||
|--4------------------------------||
|--4------------------------------||
|--2-----------------------------o||
|---------------------------------||


 3.
                             E
   W           +H.      Q    W          +W
|-----------|--------------|-4--------|-(4)----|
|-----------|--------------|-5--------|-(5)----|
|-----------|--------------|-4--------|-(4)----|
|-----------|--------------|-6--------|-(6)----|
|-----------|--------------|-7--------|-(7)----|
|-19--------|-(19)---------|----------|--------|
|
|  W           +W            W          +W
|--2--------|--(2)---------|-0--------|-(0)----|
|--4--------|--(4)---------|-0--------|-(0)----|
|--4--------|--(4)---------|-1--------|-(1)----|
|--4--------|--(4)---------|-2--------|-(2)----|
|--2--------|--(2)---------|-2--------|-(2)----|
|-----------|--------------|-0--------|-(0)----|


               Q=65       Q=50
  +W           W          W          W
|-(4)--------|----------|----------|------||
|-(5)--------|----------|----------|------||
|-(4)--------|----------|----------|------||
|-(6)--------|----------|----------|------||
|-(7)--------|----------|----------|------||
|------------|----------|----------|------||


 Recorder & Organ Solo
  Q=75
  Wx11
|---------|
|---------|
|---------|
|---------|
|---------|
|---------|


                         Outro
             Q=72
                          E              D
  W          W             W              +Q.     E  H
|----------|----------||--16-----------|-(16)----17-14------|
|----------|----------||o--------------|--------------------|
|----------|----------||--13-----------|-(13)----14-11------|
|----------|----------||---------------|--------------------|
|----------|----------||o--------------|--------------------|
|----------|----------||---------------|--------------------|
|
| Gtr II
| W          W             Q  Q  Q  Q      Q   Q     Q  Q
|----------|----------||---0--0--0--0--|--------------------|
|----------|----------||o--0--0--0--0--|---7---7-----7--7---|
|----------|----------||---1--1--1--1--|---7---7-----7--7---|
|----------|----------||---2--2--2--2--|---7---7-----7--7---|
|----------|----------||o--2--2--2--2--|---5---5-----5--5---|
|----------|----------||---0--0--0--0--|--------------------|
|
| Gtr III
| W          W             Q  Q  Q  Q      Q   Q     Q  Q
|----------|----------||---------------|--------------------|
|----------|----------||o--------------|--------------------|
|----------|----------||------9-----9--|-------7--------7---|
|----------|----------||------9-----9--|-------7--------7---|
|----------|----------||o-----7-----7--|-------5--------5---|
|----------|----------||---------------|--------------------|


  C#sus4     C#
   +Q.     E  H        E  E  +E   E  +E   E  +E   E
|-(14)----16-13-----|------------13-(13)-14-(14)-15-|
|-------------------|-14-16-(16)--------------------|
|-(11)----13-10-----|------------10-(10)-11-(11)-12-|
|-------------------|-11-13-(13)--------------------|
|-------------------|-------------------------------|
|-------------------|-------------------------------|
|
|   Q   Q     Q  Q     W
|-------------------|-------------------------------|
|---7---7-----6--6--|--6----------------------------|
|---6---6-----6--6--|--6----------------------------|
|---6---6-----6--6--|--6----------------------------|
|---4---4-----4--4--|--4----------------------------|
|-------------------|-------------------------------|
|
|   Q   Q     Q  Q     W
|-------------------|-------------------------------|
|-------------------|-------------------------------|
|-------6--------6--|-------------------------------|
|-------6--------6--|-------------------------------|
|-------4--------4--|-------------------------------|
|-------------------|-------------------------------|


  E                  D
   W                  +Q.     E  H
|-16---------------|-(16)----17-14----------|
|------------------|------------------------|
|-13---------------|-(13)----14-11----------|
|------------------|------------------------|
|------------------|------------------------|
|------------------|------------------------|
|
|  Q  Q  Q    Q        Q   Q     Q    Q
|--0--0--0----0----|------------------------|
|--0--0--0----0----|---7---7-----7----7-----|
|--1--1--1----1----|---7---7-----7----7-----|
|--2--2--2----2----|---7---7-----7----7-----|
|--2--2--2----2----|---5---5-----5----5-----|
|--0--0--0----0----|------------------------|
|
|  Q  Q  E E +E. S     Q   Q     E E +E. S
|------------------|------------------------|
|------------------|------------------------|
|-----9----9-(9)-9-|-------7-------7-(7)-7--|
|-----9----9-(9)-9-|-------7-------7-(7)-7--|
|-----7----7-(7)-7-|-------5-------5-(5)-5--|
|------------------|------------------------|


  C#sus4     C#
   +Q.     E  H
|-(14)----16-13---------|
|-----------------------|
|-(11)----13-10---------|
|-----------------------|
|-----------------------|
|-----------------------|
|
|   Q   Q     Q    Q
|-----------------------|
|---7---7-----6----6----|
|---6---6-----6----6----|
|---6---6-----6----6----|
|---4---4-----4----4----|
|-----------------------|
|
|   Q   Q     E E +E. S
|-----------------------|
|-----------------------|
|-------6-------6-(6)-6-|
|-------6-------6-(6)-6-|
|-------4-------4-(4)-4-|
|-----------------------|


 1.,2.                             3.
  C#/Ab
   E  E  +E   E  +E   E  +E   E  3x  W           +W
|------------13-(13)-14-(14)-15--||-16--------|-(16)----*|
|-14-16-(16)--------------------o||-14--------|-(14)----*|
|------------10-(10)-11-(11)-12--||-----------|---------*|
|-11-13-(13)---------------------||-----------|---------*|
|-------------------------------o||-16--------|-(16)----*|
|--------------------------------||-----------|---------*|
|
|  W                             3x  W           +W
|--------------------------------||-----------|---------*|
|--6----------------------------o||--6--------|--(6)----*|
|--6-----------------------------||--6--------|--(6)----*|
|--6-----------------------------||--6--------|--(6)----*|
|--4----------------------------o||--4--------|--(4)----*|
|--4-----------------------------||--4--------|--(4)----*|
|
|  W                             3x  W           +W
|--------------------------------||-----------|---------*|
|-------------------------------o||-----------|---------*|
|--------------------------------||--6--------|--(6)----*|
|--------------------------------||--6--------|--(6)----*|
|-------------------------------o||--4--------|--(4)----*|
|--------------------------------||-----------|---------*|


Duration Legend
---------------
W - whole; H - half; Q - quarter; E - 8th; S - 16th; T - 32nd; X - 64th; a - acciaccatura
+ - note tied to previous; . - note dotted; .. - note double dotted
Uncapitalized letters represent notes that are staccato (1/2 duration)
Irregular groupings are notated above the duration line
Duration letters will always appear directly above the note/fret number it represents the
duration for.  Duration letters with no fret number below them represent rests.  Multi-
bar rests are notated in the form Wxn, where n is the number of bars to rest for.  Low
melody durations appear below the staff

Tablature Legend
----------------
 h   - hammer-on
 p   - pull-off
 b   - bend
 pb  - pre-bend
 r   - bend release (if no number after the r, then release immediately)
 /\  - slide into or out of (from/to "nowhere")
 s   - legato slide
 S   - shift slide
  - natural harmonic
[n]  - artificial harmonic
n(n) - tapped harmonic
 ~   - vibrato
 tr  - trill
 T   - tap
 TP  - trem. picking
 PM  - palm muting
\n/  - tremolo bar dip; n = amount to dip
 \n  - tremolo bar down
 n/  - tremolo bar up
/n\  - tremolo bar inverted dip
 =   - hold bend; also acts as connecting device for hammers/pulls
 <>  - volume swell (louder/softer)
 x   - on rhythm slash represents muted slash
 o   - on rhythm slash represents single note slash

Misc Legend
-----------
 |  - bar
||  - double bar
||o - repeat start
o|| - repeat end
*|  - double bar (ending)
 :  - bar (freetime)
 $  - Segno
 &  - Coda
Tempo markers -  = BPM(8/16=s8/s16), where s8 = swing 8ths, s16 = swing 16ths
Добавлено: 12.11.2015
Другие материалы по этой песне:

Страница создана 22.02.2012
http://primanota.ru/king-crimson/the-court-of-the-crimson-king-chords.htm
Привет, Гость.
Предлагаем пройти революционный курс по гитаре.
Подарок от PrimaNota.Ru, забирай!