PrimaNota.ru - самый крупный в мире бесплатный архив песенных текстов, аккордов, табулатур и нот


King Crimson - One More Red Nightmare - аккорды и текст, таба, бас-таба, видео

Регистрация Запомнить меня
Войти через:  Facebook Google Twitter Vk Yandex Mail.ru

King Crimson - One More Red Nightmare - аккорды и текст, таба, бас-таба, видео

Печатать
Просмотров: 333
Уроки эстрадного вокала в Санкт-Петербурге
Авторы музыки: John Wetton, Robert Fripp

One More Red Nightmare
King Crimson
Riff 1
E|-------------------------|
B|-------------------------|
G|-------------------------|
D|-------------------------|
A|------1-------1------1---|
E|0--4----0--4----0--4---0-|
 
Riff 2
E|--------------------------|
B|--------------------------|
G|--------------------------|
D|---0--2----0--2----0-2----|
A|1-------1-------1-------1-|
E|--------------------------|

Riff 3
E|--------------------|
B|--------------------|
G|--------------------|
D|---2--4---2-4---2-4-|
A|3-------3-----3-----|
E|--------------------|

Riff 4
E|-12-9---14-12---15-14---7-9-|
B|----------------------------|
G|----------------------------|
D|----------------------------|
A|----------------------------|
E|----------------------------|

The song goes like this:

Riff 1 (repeat)

Riff 2

Riff 1

Riff 2
Riff 3

Riff 4 lyrics begin
Riff 4 lyrics end

Riff 1

Riff 2

Riff 1

Riff 2
Riff 3

Riff 4 lyrics continue
Riff 4 lyrics end
Добавлено: 02.02.2014
Другие материалы по этой песне:

Страница создана 07.07.2012
http://primanota.ru/king-crimson/one-more-red-nightmare-chords.htm
Привет, Гость.
Предлагаем пройти революционный курс по гитаре.
Подарок от PrimaNota.Ru, забирай!