PrimaNota.ru - самый крупный в мире бесплатный архив песенных текстов, аккордов, табулатур и нот


King Crimson - Night Watch - аккорды и текст, таба, видео

Регистрация Запомнить меня
Войти через:  Facebook Google Twitter Vk Yandex Mail.ru

King Crimson - Night Watch - аккорды и текст, таба, видео

Печатать
Просмотров: 171
Авторы музыки: John Wetton, Robert Fripp
Авторы текста: Richard Palmer-James
Night Watch
King Crimson
e||-10--12--14--12--|
B||-0---0---0---0---|
G||-----------------|
D||-----------------|
A||-----------------|
E||-----------------|

e||-----------------|-----------------|--------------------------|
B||-12----------8---|-7-----------10--|-12----------8---7---10---|
G||-----------------|-----------------6--------------------------|
D||-----------------|-----------------8--------------------------|
A||-----------------|-----------------|--------------------------|
E||-----------------|-----------------|--------------------------|

e||---------------12|-10------------12|-14--------------|
B||-12-------10-12--|----------10-12--|-----------------|
G||-----------------|-----------------|-----------------|
D||-----------------|-----------------|-----------------|
A||-----------------|-----------------|-----------------|
E||-----------------|-----------------|-----------------|

Verse 1:
Strum each note many times

e||------------------------------------------------------|
B||-12------7-------12------7---12--------------10-------|
G||-----------------------------------------------------o|
D||-----------------------------------------------------o|
A||------------------------------------------------------|
E||------------------------------------------------------|
Shine...shine...............the light of.....shine
...watch...before...city...streets..............prime

e||-----------------|-----------------|---------10------|-slow down -------|
B||-12------7-------|-12------7-------|-12--------------|------------------|
G||-----------------|-----------------|-----------------|------------------|
D||-----------------|-----------------|-----------------|------------------|
A||-----------------|-----------------|-----------------|------------------|
E||-----------------|-----------------|-----------------|------------------|
...golden..light.....grimy...now.......hundred..passed...Captain

e||-10~-------------|
B||-12~-------------|
G||-11~-------------|
D||-----------------|
A||-----------------|
E||-----------------|
...fast

Interlude:

e||-----------------|-----------------|-----------------|--------------|
B||-----------------|-----------------|-----------------|------------|
G|4-----------------|-----------------|-------|------------------|
D|4--------------|-----------------|--------------|------------------|
A||-----------|-----------|-----------------|------------------|
E||--------------|--------------|-----------------|------------------|


Verse 2:

e||-----------------|-----------------|---------14--12--|--------------|
B||---------15--14~-|---------14--12~-|-----------------|---------------|
G||---12---------|------12---------|--12---------|------------------|
D||-----------------|-----------------|-----------------|------------------|
A||-----------------|-----------------|-----------------|------------------|
E||-----------------|-----------------|-----------------|------------------|

Verse 3: Now you will start to hear 2 guitars

e||-----------------|-----------------|-------------|------------------|
B||---------15--14~-|---------14--12~-|--------------|--------------g
G||---12---------|------12---------|-----------------|------------------t
D||-----------------|-----------------|--------------|------------------r
A||-----------------|-----------------|-----------------|------------------1
E||-----------------|-----------------|-----------------|------------------|
|| |
e||-----------------|-----------------|-----------------|---------14--12---|
B||-----------------|-----------------|-----------------|------------------g
G|4-----------------|-----------------|-----------------|------------------t
D|4-----------------|-----------------|-----------------|------------------r
A||-----------------|-----------------|-----------------|------------------2
E||-----------------|-----------------|-----------------|------------------|

e||-14----12----10--|-9---------------|-14----12----14--|-17---------------|
B||---15----15----10|---10------------|---15----15------|---15-------------g
G|-----16----16----|-----11~---------|-----16----16----|-----14~----------t
D||-----------------|-----------------|-----------------|------------------r
A||-----------------|-----------------|-----------------|------------------1
E||-----------------|-----------------|-----------------|------------------|
|| |
e||-10~---------12--|-14/17~~---------|-14~---12~---10~-|-12-14------------|
B||-----------------|-----------------|-----------------|------10~---------g
G||-----------------|-----------------|-----------------|------------------t
D||-----------------|-----------------|-----------------|------------------r
A||-----------------|-----------------|-----------------|------------------2
E||-----------------|-----------------|-----------------|------------------|

Verse 4:

e||-----------------|-----------------|---------14--12--|--------------|
B||---------15--14~-|---------14--12~-|-----------------|---------------g
G||---12---12----|-------12--12----|--12---12----|------------------t
D||-----------------|-----------------|-----------------|------------------r
A||-----------------|-----------------|-----------------|------------------1
E||-----------------|-----------------|-----------------|------------------|
|| |
e||-----------------|-----------------|-----------------|-----141517~------|
B||-----------------|-----------------|-----------------|------------------g
G||-----------------|-----------------|-----------------|-------------1112-t
D||-----------------|-----------------|-----------------|------------------r
A||-----------------|-----------------|-----------------|------------------2
E||-----------------|-----------------|-----------------|------------------|

Verse 5:

e||-----------------|-----------------|-------------|------------------|
B||---------15--14~-|---------14--12~-|--------------|--------------g
G||---12---12----|-------12--12----|-----------------|------------------t
D||-----------------|-----------------|--------------|------------------r
A||-----------------|-----------------|-----------------|------------------1
E||-----------------|-----------------|-----------------|------------------|
|| |
e||-----------------|-----------------|-----------------|---------14--12---|
B||-----------------|-----------------|-----------------|------------------g
G||14~--------------|-----------------|-----------------|------------------t
D||-----------------|-----------------|-----------------|------------------r
A||-----------------|-----------------|-----------------|------------------2
E||-----------------|-----------------|-----------------|------------------|

e||-14----12----10--|-9---------------|-14----12----14--|-17---------------|
B||---15----15----10|---10------------|---15----15------|---15-------------g
G||-----16----16----|-----11~---------|-----16----16----|-----14~----------t
D||-----------------|-----------------|-----------------|------------------r
A||-----------------|-----------------|-----------------|------------------1
E||-----------------|-----------------|-----------------|------------------|
|| |
e||-10~---------12--|-14/17~~---------|-14~---12~---10~-|-12-14------------|
B||-----------------|-----------------|-----------------|------10~---------g
G||-----------------|-----------------|-----------------|------------------t
D||-----------------|-----------------|-----------------|------------------r
A||-----------------|-----------------|-----------------|------------------2
E||-----------------|-----------------|-----------------|------------------|

Solo....


Verse 6:

e||-----------------|-----------------|-----------------|------------------|
B||-----7~----------|-----7~----------|-5~--------------|-----7~-----------|
G||--6--------------|---6~------------|---6~------------|--6---------------|
D||-7-7-------------|-7~--------------|-----7~----------|-7-7--------------|
A||-----------------|-----------------|-----------------|------------------|
E||-----------------|-----------------|-----------------|------------------|

e||-----------------|-----------------|-----------------|------------------|
B||-----------------|-----------------|-----------------|------------------g
G|4-6~--------------|-----------------|-----------------|------------------t
D|4---7~------------|-----------------|-----------------|------------------r
A||-----9~----------|-----------------|-----------------|------------------1
E||-----------------|-----------------|-----------------|------------------|
|| |
e||---------12--14--|-10~---------12--|-14/17~~---------|-14~---12~---10~--|
B||-----------------|-----------------|-----------------|------------------g
G|4-----------------|-----------------|-----------------|------------------t
D|4-----------------|-----------------|-----------------|------------------r
A||-----------------|-----------------|-----------------|------------------2
E||-----------------|-----------------|-----------------|------------------|

e||-12-14-----------|
B||------10~--------g
G|4-----------------t
D|4-----------------r
A||-----------------2
E||-----------------|

Keyboard solo: How to play it on guitar..

e||-------------10--------------------|-------------10---------------------|
B||-12--10--12------12--10------10----|-12--10--12------12--10-------------|
G||-------------------------11--------|-------------------------11--9------|
D||-----------------------------------|------------------------------------|
A||-----------------------------------|------------------------------------|
E||-----------------------------------|------------------------------------|

e||-----------------------------------|------------------------------------|
B||-----------------------------------|---------10--------------10---------|
G||-9---11--9---------------9---------|-9---11------11--9---11-------------|
D||-------------12--9---12------12----|------------------------------------|
A||-----------------------------------|------------------------------------|
E||-----------------------------------|------------------------------------|

e||-------------10--12--10--12--14----|-14--12--10--12--10-----------------|
B||-12--10--12------------------------|---------------------12--10--12-----|
G||-----------------------------------|------------------------------------|
D||-----------------------------------|------------------------------------|
A||-----------------------------------|------------------------------------|
E||-----------------------------------|------------------------------------|

e||-----------------------------------|------------------------------------|
B||-10--------------10----------------|-12---------------------------------|
G||-----11--9---11------11--9---11----|------------------------------------|
D||-----------------------------------|------------------------------------|
A||-----------------------------------|------------------------------------|
E||-----------------------------------|------------------------------------|
Добавлено: 06.01.2014
Другие материалы по этой песне:

Страница создана 29.02.2012
http://primanota.ru/king-crimson/night-watch-chords.htm
Привет, Гость.
Предлагаем пройти революционный курс по гитаре.
Подарок от PrimaNota.Ru, забирай!