PrimaNota.ru - самый крупный в мире бесплатный архив песенных текстов, аккордов, табулатур и нот


King Crimson - Inner Garden Ii - таба, видео

Регистрация Запомнить меня
Войти через:  Facebook Google Twitter Vk Yandex Mail.ru

King Crimson - Inner Garden Ii - таба, видео

Печатать
Просмотров: 144
Авторы музыки: King Crimson
Авторы текста: Adrian Belew
Grupo: King Crimson  

Canción: Inner Garden II 

Álbum: Thrak

Tab by Alberto Serrano Roig                                


Pista 1
                                          
E||--------------------------------------|
B||--------------------------------------|
G||-----------4-----------------3--------|
D||--------4-----4-----------4-----4-----|
A||-----1-----------1-----2-----------2--|
D||--1-----------------1-----------------|


                                                                              
--------------------------------------|--------------------------------------|
--------------------------------------|--------------------------------------|
-----------4-----------------6--------|-----------4-----------------3--------|
--------4-----4-----------4-----4-----|--------4-----4-----------4-----4-----|
-----1-----------1-----2-----------2--|-----1-----------1-----2-----------2--|
--1-----------------0-----------------|--1-----------------1-----------------|


                                                                              
--------------------------------------|--------------------------------------|
--------------------------------------|--------------------------------------|
-----------4--------------------------|-----------7-----------------6--------|
--------4-----4-----------4--------6--|--------7-----7-----------7-----7-----|
-----1-----------1-----2--------5-----|-----4-----------4-----5-----------5--|
--1-----------------0--------3--------|--4-----------------4-----------------|


                                                                              
--------------------------------------|--------------------------------------|
--------------------------------------|--------------------------------------|
-----------7-----------------9--------|-----------7-----------------6--------|
--------7-----7-----------7-----7-----|--------7-----7-----------7-----7-----|
-----4-----------4-----5-----------5--|-----4-----------4-----5-----------5--|
--4-----------------3-----------------|--4-----------------4-----------------|


                                                                              
--------------------------------------|--------------------------------------|
--------------------------------------|--------------------------------------|
-----------7--------------------------|-----------9-----------------8--------|
--------7-----7-----------6--------8--|--------9-----9-----------9-----9-----|
-----4-----------4-----5--------7-----|-----6-----------6-----7-----------7--|
--4-----------------3--------5--------|--6-----------------6-----------------|


                                       
--------------------------------------|
--------------------------------------|
-----------9--------------3--------6--|
--------9-----9--------2--------5-----|
-----6-----------6--------------------|
--6-----------------2--------5--------|


                                               
----------------------------------------------|
----------------------------------------------|
------------12--------------------11----------|
--------12------12------------12------12------|
-----9--------------9-----10--------------10--|
--9--------------------9----------------------|


                                               
----------------------------------------------|
----------------------------------------------|
------------12--------------------14----------|
--------12------12------------12------12------|
-----9--------------9-----10--------------10--|
--9--------------------8----------------------|


                                               
----------------------------------------------|
----------------------------------------------|
------------12--------------------11----------|
--------12------12------------12------12------|
-----9--------------9-----10--------------10--|
--9--------------------9----------------------|


                                            
------------------------------------------||
------------------------------------------||
------------12----------------------------||
--------12------12------------12---11-----||
-----9--------------9-----10--------------||
--9--------------------8------------------||


Добавлено: 28.03.2012
Другие материалы по этой песне:

Страница создана 28.03.2012
http://primanota.ru/king-crimson/inner-garden-ii-chords.htm
Привет, Гость.
Предлагаем пройти революционный курс по гитаре.
Подарок от PrimaNota.Ru, забирай!