PrimaNota.ru - самый крупный в мире бесплатный архив песенных текстов, аккордов, табулатур и нот


King Crimson - In The Wake Of Poseidon - текст песни, таба, видео

Регистрация Запомнить меня
Войти через:  Facebook Google Twitter Vk Yandex Mail.ru

King Crimson - In The Wake Of Poseidon - текст песни, таба, видео

Печатать
Просмотров: 134
Band: King Crimson
Song: In The Wake Of Poseidon


Guitar 1 (acoustic): 

            ^                      ^                      ^                    
             H        Q    E  E     Q.     E  Q    Q       Q    H        E  E   
E||-------|--7--------7----7-----|--3--------------3----|--7-------------7-----|
B||-------|--8--------7----7-----|--5--------------5----|--8-------------7-----|
G||-------|--9--------9----9-----|--5--------------5----|--9-------------9-----|
D||-------|----------------------|----------------------|----------------------|
A||-------|--7-------------------|----------------------|----------------------|
E||-------|----------------------|----------------------|----------------------|


  ^                       ^                                             
  Q    Q    E  E  Q       Q    E  E  H           E  E  Q    Q    E  E   
--7----7----L----------|--7----7--------------|--7----------7----7-----|
--7----7----L----------|--8----8--------------|--7----------7----7-----|
--7----7----L----------|--9----9--------------|--7----------7----7-----|
-----------------------|----------------------|------------------------|
-----------------------|----------------------|------------------------|
-----------------------|----------------------|------------------------|


  Q    Q    E  E  E  E     E  E  Q    Q    Q       H        H         
--5----5----L-----5-----|--7----------7---------|--7-----------------|
--5----5----L-----5-----|--7----------7---------|--7-----------------|
--5----5----L-----5-----|--8----------8---------|--8-----------------|
------------------------|-----------------------|--------------------|
------------------------|-----------------------|--------------------|
------------------------|-----------------------|--------------------|


  ^                                                               ^     
                |3|                                                     
  H        Q    S E  S S    E  E  Q    H           H        E  E  Q     
--3----------------------|----------------------|-----------------3----|
--5------------------0---|--0-------------------|-----------------5----|
--4---------------0----0-|----------------------|--------------2--5----|
--2-------------2-L--L---|----------------------|-----------2-----7----|
-------------------------|----------------------|----------------------|
-------------------------|----------------------|----------------------|


                             ^                            
                                         |--3--|          
  E  S S Q    E  S S Q       Q    S S E  E  E  E  S S E   
--------------------------|--0----2-0-2--L--------2-0----|
-----0-----------0--------|--------------------0------3--|
-------2-----------2------|--4---------------------------|
--4------1-----------1----|--4--------------4------------|
--------------------------|--2---------------------------|
--------------------------|------------------------------|


  Q    E   E  Q    E   E     Q    E  S S S S S S Q     
--------------------------|----------------0----------|
--3----8S--3-------8S--3--|------------1-0---0-1-0----|
--------------------------|-------0--L---L------------|
--------------------------|---------------------------|
--------------------------|---------------------------|
--------------------------|---------------------------|


               ^                         ^                 ^                
  E  S S E  E  Q.     T T S    Q.     E  Q.     E     Q    Q    E  E  Q     
---------------7------7-L-L-|--L---------2---------|-----------------------|
-----1-0----0-----------8-L-|--L---------3---------|-------3-------0-------|
---------------8----------9-|--L---------4---------|-------4---------------|
---------2------------------|---------4--5------L--|--0----4----------4----|
---------------9------------|--7-------------------|-----------------------|
----------------------------|----------------------|-----------------------|


  Q    E  E  S. T S S Q       Q    H        Q       Q    Q    Q    Q     
--------------------7-L----|---------------------|----------------------|
----------------5-8--------|--0-------------7----|-------7----5---------|
-------4-----5-------------|---------------------|--9--------------4----|
---------------------------|---------------------|--9----7----5----4----|
---------------------------|---------------------|----------------------|
---------------------------|---------------------|----------------------|


                                         ^             ^                      
  H        S S S S S S E     E  E  E  E  Q    E  E     H        E  E  S S E   
-----------3-2-0----------|--------------3----------|--0----------------3-3--|
-----------------0-1-0----|-----------1--5----L--L--|--0----------------5-5--|
-----------------------0--|--2--0--2-----5----L--L--|--0-----------0--L-4-4--|
--------------------------|-------------------7-----|--2------------------5--|
--------------------------|-------------------------|-------------------2-L--|
--------------------------|-------------------------|------------------------|


  ^                                                                             
  H        H           E  E  Q    H                                             
--------------------|----------------------|-----------|-----------|-----------|
--0-----------------|--------3-------------|-----------|-----------|-----------|
--0-----------------|-----2----------------|-----------|-----------|-----------|
--2-----------------|--4-------------------|-----------|-----------|-----------|
--------------------|----------------------|-----------|-----------|-----------|
--------------------|----------------------|-----------|-----------|-----------|


                          Q    E  S S Q    E  E      Q    Q    H         
-----------|-----------|--7----7------7----7--L--|---9------------------|
-----------|-----------|--8----8----8-8----8-----|--10------------------|
-----------|-----------|------------0-0----0--L--|----------------------|
-----------|-----------|--9----9----9-9----9-----|--11------------------|
-----------|-----------|-------------------------|----------------------|
-----------|-----------|--7----7-----------------|----------------------|


  Q    E  S S E  E  E  E      Q     Q    Q     Q        Q     Q    H         
--7----7--L-3-7-----7-----|---9-----9----------7----|--11----11-------------|
--7----7----L-8-----8-----|--10----10----------0----|--12----12-------------|
--7----7----7-7-----7-----|---9-----9----------9----|--11----11-------------|
--------------------------|--11----11---------11----|--13----13-------------|
--------------------------|--12----12---------------|-----------------------|
--------------------------|-------------------------|-----------------------|


                            |-3|     |--3--|                  
  E  E  E  S S Q    Q       E  S S S E  E  E  Q    S T S T S  
--7----------7-7----7----|--2----0-2-2--0--2--3------5-3-0---|
--8----------------------|-----0---------------------------0-|
--8----------7-7----7----|-----------------------------------|
--9----------7-7----7----|-----------------------------------|
-------------9-9----9----|-----------------------------------|
-------------------------|-----------------------------------|


  Q    Q    Q    Q       Q    Q    Q    E  E     Q    E  E  Q    E  E   
----------------------|--------------------5--|----------7----------7--|
----------------------|--------------------5--|----------7----------8--|
-------4----4---------|--2----0------------5--|----------9----------9--|
-------4--------------|------------2-------7--|----------9----------9--|
----------------------|-----------------------|------------------------|
----------------------|-----------------------|------------------------|


                                        \0/       \0/     
  Q    S S S S E  S S S S S S    Q.     E   E  E  E   E   
-------0---2-0-3----0-2---0-2-|---------3---L-----3------|
---------0--------0-----0-----|--3-------------3------3--|
------------------------------|--------------------------|
------------------------------|--------------------------|
------------------------------|--------------------------|
------------------------------|--------------------------|


                         |----3----|                     
  Q    Q    Q    Q       Q    Q    Q    E  Q    T T T T  
----------------------|-------7----7-------7----7-------|
--5----3----1----0----|-------7----7-------7------7-----|
--5----4----2----0----|-------8----8-------8--------9---|
----------------------|-------------------------------9-|
----------------------|--9-----------------9------------|
----------------------|---------------------------------|


                                     ^                  
  Q    S S S S S S S S Q       E  E  E  E  E  E  E  E   
-------7-7-7---7---7-7------|--------2--L--------------|
-------7-7-7-7-7---7-7------|--------3--3--0--------0--|
-----------------7----------|-----2--2--L--------------|
-------9-9-9---9---9-9-9----|--4-----4-----------4-----|
--7-------------------------|-----------------2--------|
----------------------------|--------------------------|


                             |--3--|  |--3--|  |--3--|         
  Q    E  E  Q       Q       E  E  E  E  E  E  E  E  E  E  E   
-------------3pbr---------|--------2--L-----2-----------------|
--1-----------------------|-----0--------0-----4--1--0--L-----|
--------------------------|-----------L--------------------0--|
-------2------------------|-----------------------------------|
--------------------------|--2--------------------------------|
--------------------------|-----------------------------------|


       |--3--|  |--3--|  |--3--|     |--3--|  |--3--|  |--3--|         
  Q    E  E  E  E  E  E  E  E  E     E  E  E  E  E  E  E  E  E  E  E   
-------------3--L--0--2-----------|--------3--L--0--2-----------------|
----------0--------------0--------|-----0--------------0--------------|
----------------------------2-----|-----------------------2-----------|
--2----L--------------------------|-----------------------------------|
-------------------------------2--|--L-----------------------2--L-----|
----------------------------------|-----------------------------------|


                                                 ^                              
  H        E  E  E  E     Q    Q    Q    Q       H        H                     
--------------0--3-----|--0---------0----0----|--0-----------------|-----------|
-----------0-----------|--0---------0----0----|--0-----------------|-----------|
-----------------------|--0---------0----0----|--0-----------------|-----------|
-----------------------|--2-------------------|--2-----------------|-----------|
-----------------------|----------------------|--------------------|-----------|
-----------------------|----------------------|--------------------|-----------|


-----------|-----------|-----------|-----------|-----------|-----------|
-----------|-----------|-----------|-----------|-----------|-----------|
-----------|-----------|-----------|-----------|-----------|-----------|
-----------|-----------|-----------|-----------|-----------|-----------|
-----------|-----------|-----------|-----------|-----------|-----------|
-----------|-----------|-----------|-----------|-----------|-----------|


                                      Q    E  E  E  Q    E    
-----------|-----------|-----------|----------------2--------|
-----------|-----------|-----------|-------------0-------5S--|
-----------|-----------|-----------|----------0--------------|
-----------|-----------|-----------|-------2-----------------|
-----------|-----------|-----------|-------------------------|
-----------|-----------|-----------|-------------------------|


                                |--3--|       |--3-|                           
  Q    Q    H           S S S S E  E  E  Q    Q    E     S E.  E  E  H         
---------------------|----------0--2--3--2----0-------|----5---L--------------|
--3------------------|--------0-----------------------|--3-L---L--------------|
--4------------------|-----------------------------2--|--4-L---L--------------|
---------------------|------2-------------------------|-----------------------|
---------------------|----2---------------------------|-----------------------|
---------------------|--------------------------------|-----------------------|


  E  E  E  E  E  Q    E     E  S S S S S S  S S S S S S S S  
--------2--0--L----------|---------7--------------7---7-----|
-----0-----0--L--3----1--|-------7---7---7------7---7---7---|
-----------------2----0--|-----7--------------7-------------|
--2----------------------|--9----------9------------------9-|
-------------------------|--9--------------10---------------|
-------------------------|----------------------------------|


        |--3--|  |--3--|                   |--3--|  |--3--|  |--3--|   
  E  E  E  E  E  E  E  E  E  E     S S S S E  E  E  E  E  E  E  E  E   
--------0-----0-----5-----5-----|----------7--------7-----------------|
-----------2-----5-----5-----5--|--------7----7--------7--------------|
--------------------------------|------7---------7--------------------|
-----7--------------------------|----9--------------------9-----9-----|
--7-----------------------------|----------------------------9-----9--|
--------------------------------|-------------------------------------|


                             ^                       
                                           |--3--|   
  E  E  E  E  E  E  E  E     Q    H        E  E  E   
--------0-----------5-----|--2----------------------|
--------2-----------5-----|--4-------------4-----4--|
-----2-----------2--6-----|--4----------------4-----|
--2-----------------------|--4----------------------|
--------------4-----------|-------------------------|
--------------------------|-------------------------|


  |-3|    |--3-|                                              
  E  Q    Q    E  E  E  Q               H        E  E  E  E   
-----------------------------|-------|--------------0--2--3--|
-----------------------------|-------|-----------0-----------|
--2--------------------------|-------|-----------------------|
-----4---------1--4----------|-------|-----------------------|
----------2------------------|-------|-----------------------|
-----------------------------|-------|-----------------------|


  ^                                                                         
                                     |--3--|                                
  Q    Q    H           Q    S S S S E  E  E  E  E     E  E  Q    H         
--5------------------|---------------3--2--3--L--2--|--------2-------------|
--7------------------|-------------5----------------|-----0----------------|
--4------------------|-----------4------------------|----------------------|
--4------------------|---------4--------------------|----------------------|
---------------------|-------2----------------------|----------------------|
---------------------|------------------------------|----------------------|


                         ^                                            
  Q    Q    Q    Q       Q    Q     Q.     E      Q    Q    H         
-------3----L---------|--7----7-----7---------|---9------------------|
-------5----L---------|--8----8-----8---------|--10------------------|
-------4----L---------|-----------------------|----------------------|
--2-------------------|--9----9-----9------L--|--11------------------|
----------------------|------------10------L--|----------------------|
----------------------|--7----7---------------|----------------------|


  Q    Q    Q    Q        Q    Q    H            Q     Q    H         
--7---------7---------|--12------------------|--11----11-------------|
--7---------8---------|----------------------|--12----12-------------|
--7---------7---------|--14------------------|--11----11-------------|
--9---------9---------|--14------------------|--13----13-------------|
----------------------|--12------------------|-----------------------|
----------------------|----------------------|-----------------------|


                          ^                                    \1/   
  Q    Q    E  Q    E     Q    Q    H           Q    Q    Q    Q     
--7------------7-------|--7------------------|-------7--------------|
--8--------------------|--7------------------|-------7---------8----|
--8------------8-------|---------------------|----------------------|
--9------------7-------|--9------------------|-------9--------------|
---------------9-------|---------------------|--9----9--------------|
-----------------------|---------------------|----------------------|


          \1/ \0/ \2/                                 
  Q    E  E   E   Q    E     E.  S E  E  E.  S E  E   
------------------8-------|------5-L--7------5-------|
----------8---------------|--7--------8--7-----7-----|
--------------9-----------|-----------9--------------|
--------------------------|-----------9--------------|
--------------------------|--------------------------|
--------------------------|--------------------------|


  |----3----|                         |--3--|  |--3--|                
  Q    Q    Q    S E  S T. X S S S    E  E  E  E  E  E  E  E  S S E   
-------0----2----------------------|-----5--------5------------------|
--0----------------0---------------|-----7--------7------------------|
----------------------0-L--2-2-----|-----9--7--L--9--7--L-----0------|
-------------------------------0-0-|-----------------------0----4-0--|
-----------------------------------|---------------------------------|
-----------------------------------|---------------------------------|


             ^                                                                
                               |--3--|                                        
  E  E  Q    Q    Q       Q    E  E  E  Q    Q       Q    E  S T T Q    Q     
-------------3---------|-------7------------------|----------2-0-------------|
-------------5---------|--8----7--8----------0----|--------------0------0----|
--2--0-------4---------|-------8------------------|--------------------------|
--------2--------------|--------------------------|----------------2---------|
-----------------------|--------------------------|--2-----------------------|
-----------------------|--------------------------|--------------------------|


        ^                                                                     
  E  E  E  E  E  E  E  E     Q     E  E  E  E  Q       E  Q    E  Q     Q     
--------2--L--2-----7-----|--------8-----7----------|-----8----7--8S---------|
--------3--3--------------|--1----10-----8----------|------------------------|
-----2--2--L--------------|-------------------------|------------------------|
--4-----4--L--------------|-------------------------|------------------------|
--------------------------|-------------------------|------------------------|
-----------------------7--|-------------------------|------------------------|


                                                            ^        ^         
  H        H                       Q    Q    E  E  E  E     H        H         
--0-----------------|-----------|---------------0--3-----|--0--------0--------|
--------------------|-----------|--1---------0-----------|--0--------0--------|
--------------------|-----------|------------------------|--0--------0--------|
--------------------|-----------|------------------------|--2-----------------|
--------------------|-----------|------------------------|--------------------|
--------------------|-----------|------------------------|--------------------|


  H        H           Q    Q    E  E  E  S S    Q    Q    Q    Q     
--3-----------------|--3----3----L-----3----3-|--3----3----L---------|
--5-----------------|--5----5----L-----5----5-|--3----3----L---------|
--5-----------------|--5----5----L-----5----5-|--4----4----L---------|
--5-----------------|--5----5----L-----5--5-5-|--5----5----L---------|
--------------------|-------------------------|----------------------|
--------------------|-------------------------|----------------------|


  Q    Q    E  E  E  S S    Q    Q    Q    Q       Q    Q    E  E  E  S S  
--3----3----L-----3----3-|--3----3----L---------|--3----3----L-----3----3-|
--5----5----L-----5----5-|--3----3----L---------|--5----5----L-----5----5-|
--5----5----L-----5----5-|--4----4----L---------|--5----5----L-----5----5-|
--5----5----L-----5--5-5-|--5----5----L---------|--5----5----L-----5--5-5-|
-------------------------|----------------------|-------------------------|
-------------------------|----------------------|-------------------------|


  Q    Q    Q    Q       Q    Q    E  E  E  S S    Q    Q    Q    Q     
--3----3----L---------|--3----3----L-----3----3-|--3----3----L---------|
--3----3----L---------|--5----5----L-----5----5-|--3----3----L---------|
--4----4----L---------|--5----5----L-----5----5-|--4----4----L---------|
--5----5----L---------|--5----5----L-----5--5-5-|--5----5----L---------|
----------------------|-------------------------|----------------------|
----------------------|-------------------------|----------------------|


  Q    Q    E  E  E  S S    Q    Q    Q    Q       Q    Q    E  E  E  S S  
--3----3----L-----3----3-|--3----3----L---------|--3----3----L-----3----3-|
--5----5----L-----5----5-|--3----3----L---------|--5----5----L-----5----5-|
--5----5----L-----5----5-|--4----4----L---------|--5----5----L-----5----5-|
--5----5----L-----5--5-5-|--5----5----L---------|--5----5----L-----5--5-5-|
-------------------------|----------------------|-------------------------|
-------------------------|----------------------|-------------------------|


  Q    Q    Q    Q       Q    Q    E  E  E  S S    Q    Q    Q    Q     
--3----3----L---------|--3----3----L-----3----3-|--3----3----L---------|
--3----3----L---------|--5----5----L-----5----5-|--3----3----L---------|
--4----4----L---------|--5----5----L-----5----5-|--4----4----L---------|
--5----5----L---------|--5----5----L-----5--5-5-|--5----5----L---------|
----------------------|-------------------------|----------------------|
----------------------|-------------------------|----------------------|


  E  E  Q    E  E  E  S S    Q    Q    Q    Q       Q    Q    E  E  E  S S  
--3-----3----L-----3----3-|--3----3----L---------|--3----3----L-----3----3-|
--5-----5----L-----5----5-|--3----3----L---------|--5----5----L-----5----5-|
--5-----5----L-----5----5-|--4----4----L---------|--5----5----L-----5----5-|
--5-----5----L-----5--5-5-|--5----5----L---------|--5----5----L-----5--5-5-|
--------------------------|----------------------|-------------------------|
--------------------------|----------------------|-------------------------|


  Q    Q    Q    Q       Q    Q    E  E  E  S S    Q    T T T T E  H         
--3----3----L---------|--3----3----L-----3----3-|--3----3-L-L-L-L-----------|
--3----3----L---------|--5----5----L-----5----5-|--3------3-L-L-L-----------|
--4----4----L---------|--5----5----L-----5----5-|--4--------4-L-L-----------|
--5----5----L---------|--5----5----L-----5--5-5-|--5----------5-L-----------|
----------------------|-------------------------|---------------------------|
----------------------|-------------------------|---------------------------|


  Q    Q    E  E  E  S S    Q    T T T T E  H         
--3----3----L-----3----3-|--3----3-L-L-L-L-----------|
--5----5----L-----5----5-|--3------3-L-L-L-----------|
--5----5----L-----5----5-|--4--------4-L-L-----------|
--5----5----L-----5--5-5-|--5----------5-L-----------|
-------------------------|---------------------------|
-------------------------|---------------------------|


  |--3-|                                                                      
  Q    E  E  E  Q    E  S S    Q    Q    Q    Q       Q    Q    E  E  E  S S  
--3----3--L--3-------3----3-|--3----3----L---------|--3----3----L-----3----3-|
--5----5--L--5-------5----5-|--3----3----L---------|--5----5----L-----5----5-|
--5----5--L--5-------5----5-|--4----4----L---------|--5----5----L-----5----5-|
--5----5--L--5-------5--5-5-|--5----5----L---------|--5----5----L-----5--5-5-|
----------------------------|----------------------|-------------------------|
----------------------------|----------------------|-------------------------|


  Q    Q    Q    Q       Q    Q    E  E  E  S S    Q    Q    Q    Q     
--3----3----L---------|--3----3----L-----3----3-|--3----3----L---------|
--3----3----L---------|--5----5----L-----5----5-|--3----3----L---------|
--4----4----L---------|--5----5----L-----5----5-|--4----4----L---------|
--5----5----L---------|--5----5----L-----5--5-5-|--5----5----L---------|
----------------------|-------------------------|----------------------|
----------------------|-------------------------|----------------------|


  Q    Q    E  E  E  S S    Q    Q    Q    Q       E  E  Q    E  E  E  S S  
--3----3----L-----3----3-|--3----3----L---------|--3-----3----L-----3----3-|
--5----5----L-----5----5-|--3----3----L---------|--5-----5----L-----5----5-|
--5----5----L-----5----5-|--4----4----L---------|--5-----5----L-----5----5-|
--5----5----L-----5--5-5-|--5----5----L---------|--5-----5----L-----5--5-5-|
-------------------------|----------------------|--------------------------|
-------------------------|----------------------|--------------------------|


  Q    Q    Q    Q       Q    Q    E  E  E  S S    Q    Q    Q    Q      
--3----3----L---------|--3----3----L-----3----3-|--3----3----L---------||
--3----3----L---------|--5----5----L-----5----5-|--5----5----L---------||
--4----4----L---------|--5----5----L-----5----5-|--5----5----L---------||
--5----5----L---------|--5----5----L-----5--5-5-|--3----3----L---------||
----------------------|-------------------------|----------------------||
----------------------|-------------------------|----------------------||








Guitar 2 (electric):


E||-------|-------|-------|-------|-------|-------|-------|-------|-------|
B||-------|-------|-------|-------|-------|-------|-------|-------|-------|
G||-------|-------|-------|-------|-------|-------|-------|-------|-------|
D||-------|-------|-------|-------|-------|-------|-------|-------|-------|
A||-------|-------|-------|-------|-------|-------|-------|-------|-------|
E||-------|-------|-------|-------|-------|-------|-------|-------|-------|


-------|-------|-------|-------|-------|-------|-------|-------|-------|-------|
-------|-------|-------|-------|-------|-------|-------|-------|-------|-------|
-------|-------|-------|-------|-------|-------|-------|-------|-------|-------|
-------|-------|-------|-------|-------|-------|-------|-------|-------|-------|
-------|-------|-------|-------|-------|-------|-------|-------|-------|-------|
-------|-------|-------|-------|-------|-------|-------|-------|-------|-------|


-------|-------|-------|-------|-------|-------|-------|-------|
-------|-------|-------|-------|-------|-------|-------|-------|
-------|-------|-------|-------|-------|-------|-------|-------|
-------|-------|-------|-------|-------|-------|-------|-------|
-------|-------|-------|-------|-------|-------|-------|-------|
-------|-------|-------|-------|-------|-------|-------|-------|


  E  E  E  E  H           E  E  E  E  E  E   E  E         
-----------0-----------|-----------3-----7--12-----|-----|
--------3--------------|--------0------------------|-----|
--0--2-----------------|-----2---------------------|-----|
-----------------------|---------------------------|-----|
-----------------------|---------------------------|-----|
-----------------------|--3------------------------|-----|


  E  E  E   E  H           E  E  E  E  H           E  E  E   E  E   E   E  E   
--0--3--7--12-----------|-----0--2--5-----------|--0--3--7--12-----14--15-----|
------------------------|--3--------------------|-----------------------------|
------------------------|-----------------------|-----------------------------|
------------------------|-----------------------|-----------------------------|
------------------------|-----------------------|-----------------------------|
------------------------|-----------------------|--3--------------------------|


-----|-----|-----|-----|-----|-----|-----|-----|-----|-----|-----|-----|
-----|-----|-----|-----|-----|-----|-----|-----|-----|-----|-----|-----|
-----|-----|-----|-----|-----|-----|-----|-----|-----|-----|-----|-----|
-----|-----|-----|-----|-----|-----|-----|-----|-----|-----|-----|-----|
-----|-----|-----|-----|-----|-----|-----|-----|-----|-----|-----|-----|
-----|-----|-----|-----|-----|-----|-----|-----|-----|-----|-----|-----|


  H         S  S  E  Q                                                     
-----------20----19-------|-------|-------|-------|-------|-------|-------|
--------------22----------|-------|-------|-------|-------|-------|-------|
--------------------------|-------|-------|-------|-------|-------|-------|
--------------------------|-------|-------|-------|-------|-------|-------|
--------------------------|-------|-------|-------|-------|-------|-------|
--------------------------|-------|-------|-------|-------|-------|-------|


  H         H           W                                     
-----------17--------|--L----------------|-------------------|
---------------------|-------------------|-------------------|
---------------------|-------------------|-------------------|
---------------------|-------------------|-------------------|
---------------------|-------------------|-------------------|
---------------------|-------------------|-------------------|


                                          T T E.  Q    H         
-------------------|-------------------|--7-------L----L--------|
-------------------|-------------------|----7-----L----L--------|
-------------------|-------------------|------7---L----L--------|
-------------------|-------------------|------9---L----L--------|
-------------------|-------------------|------------------------|
-------------------|-------------------|------------------------|


   X T X E.  Q    H           X X T E.  Q    H         
---------8---L----L--------|--------7---L----L--------|
-------8-----L----L--------|------7-----L----L--------|
-----9-------L----L--------|----8-------L----L--------|
--10---------L----L--------|--9---------L----L--------|
---------------------------|--------------------------|
---------------------------|--------------------------|


  X X T E.  Q    H           X X T E.  Q    H         
--------7---L----L--------|--------7---L----L--------|
------8-----L----L--------|------7-----L----L--------|
----9-------L----L--------|----7-------L----L--------|
--9---------L----L--------|--9---------L----L--------|
--------------------------|--------------------------|
--------------------------|--------------------------|


   X X T E.  Q    H           T X X E.  Q    H                                 
---------8---L----L--------|--------7---L----L--------|-----------|-----------|
-------8-----L----L--------|------7-----L----L--------|-----------|-----------|
-----9-------L----L--------|----8-------L----L--------|-----------|-----------|
--10---------L----L--------|--9---------L----L--------|-----------|-----------|
---------------------------|--------------------------|-----------|-----------|
---------------------------|--------------------------|-----------|-----------|


-----------|-----------|-----------|-----------|-----------|-----------|
-----------|-----------|-----------|-----------|-----------|-----------|
-----------|-----------|-----------|-----------|-----------|-----------|
-----------|-----------|-----------|-----------|-----------|-----------|
-----------|-----------|-----------|-----------|-----------|-----------|
-----------|-----------|-----------|-----------|-----------|-----------|


-----------|-----------|-----------|-----------|-----------|
-----------|-----------|-----------|-----------|-----------|
-----------|-----------|-----------|-----------|-----------|
-----------|-----------|-----------|-----------|-----------|
-----------|-----------|-----------|-----------|-----------|
-----------|-----------|-----------|-----------|-----------|


  E  Q    Q    E  Q       E  Q    Q    E  Q       E  Q    Q    E  Q     
-----------------------|----------0------------|-----------------------|
----------3------------|-----------------------|----------3------------|
-----------------------|-----0-----------------|-----------------------|
-----2-----------------|-----------------------|-----2-----------------|
-----------------------|-----------------------|-----------------------|
-----------------------|-----------------------|-----------------------|


  H        Q    E  E     Q    Q    H                                 
----------------------|---------------------|-----------|-----------|
----------------------|---------------------|-----------|-----------|
----------------------|---------------------|-----------|-----------|
----------------------|-------0-------------|-----------|-----------|
----------------------|---------------------|-----------|-----------|
-------------------0--|---------------------|-----------|-----------|


-----------|-----------|-----------|-----------|-----------|-----------|
-----------|-----------|-----------|-----------|-----------|-----------|
-----------|-----------|-----------|-----------|-----------|-----------|
-----------|-----------|-----------|-----------|-----------|-----------|
-----------|-----------|-----------|-----------|-----------|-----------|
-----------|-----------|-----------|-----------|-----------|-----------|


-----------|-----------|-----------|-----------|-----------|-----------|
-----------|-----------|-----------|-----------|-----------|-----------|
-----------|-----------|-----------|-----------|-----------|-----------|
-----------|-----------|-----------|-----------|-----------|-----------|
-----------|-----------|-----------|-----------|-----------|-----------|
-----------|-----------|-----------|-----------|-----------|-----------|


  Q    E  S S E  E  Q                                                     
------------2-L----------|-----------|-----------|-----------|-----------|
-------------------------|-----------|-----------|-----------|-----------|
-------------------------|-----------|-----------|-----------|-----------|
-------------------------|-----------|-----------|-----------|-----------|
-------------------------|-----------|-----------|-----------|-----------|
-------------------------|-----------|-----------|-----------|-----------|


               E   E  Q     E  E   E  E                                       
-----------|--17-------------------------|-----------|-----------|-----------|
-----------|------15---------------------|-----------|-----------|-----------|
-----------|---------------14------------|-----------|-----------|-----------|
-----------|----------------------12-----|-----------|-----------|-----------|
-----------|-----------------------------|-----------|-----------|-----------|
-----------|-----------------------------|-----------|-----------|-----------|


-----------|-----------|-----------|-----------|-----------|-----------|
-----------|-----------|-----------|-----------|-----------|-----------|
-----------|-----------|-----------|-----------|-----------|-----------|
-----------|-----------|-----------|-----------|-----------|-----------|
-----------|-----------|-----------|-----------|-----------|-----------|
-----------|-----------|-----------|-----------|-----------|-----------|


-----------|-----------|-----------|-----------|-----------|-----------|
-----------|-----------|-----------|-----------|-----------|-----------|
-----------|-----------|-----------|-----------|-----------|-----------|
-----------|-----------|-----------|-----------|-----------|-----------|
-----------|-----------|-----------|-----------|-----------|-----------|
-----------|-----------|-----------|-----------|-----------|-----------|


-----------|-----------|-----------|-----------|-----------|-----------|
-----------|-----------|-----------|-----------|-----------|-----------|
-----------|-----------|-----------|-----------|-----------|-----------|
-----------|-----------|-----------|-----------|-----------|-----------|
-----------|-----------|-----------|-----------|-----------|-----------|
-----------|-----------|-----------|-----------|-----------|-----------|


-----------|-----------|-----------|-----------|-----------|-----------|
-----------|-----------|-----------|-----------|-----------|-----------|
-----------|-----------|-----------|-----------|-----------|-----------|
-----------|-----------|-----------|-----------|-----------|-----------|
-----------|-----------|-----------|-----------|-----------|-----------|
-----------|-----------|-----------|-----------|-----------|-----------|


-----------|-----------|-----------|-----------|-----------|-----------|
-----------|-----------|-----------|-----------|-----------|-----------|
-----------|-----------|-----------|-----------|-----------|-----------|
-----------|-----------|-----------|-----------|-----------|-----------|
-----------|-----------|-----------|-----------|-----------|-----------|
-----------|-----------|-----------|-----------|-----------|-----------|


-----------|-----------|-----------|-----------||
-----------|-----------|-----------|-----------||
-----------|-----------|-----------|-----------||
-----------|-----------|-----------|-----------||
-----------|-----------|-----------|-----------||
-----------|-----------|-----------|-----------||




Duration Legend
---------------
W - whole
H - half
Q - quarter
E - 8th
S - 16th
T - 32nd
X - 64th
. - note dotted
|-n-|  - n-tuplets


Tablature Legend
----------------
L - tied note
x - dead note
g - grace note
(n) - ghost note
> - accentuded note
NH - natural harmonic
AH - artificial harmonic
TH - tapped harmonic
SH - semi harmonic
PH - pitch harmonic
h - hammer on
p - pull off
b - bend
br - bendRelease
pb - preBend
pbr - preBendRelease
brb - bendReleaseBend
\n/ - tremolo bar dip
\n - tremolo bar dive
-/n - tremolo bar Release up
/n\ - tremolo bar inverted dip
/n - tremolo bar return
-\n - tremolo bar Release down
S - shift slide
s - legato slide
/ -  slide into from below or out of upwards
\ -  slide into from above or out of downwards
~ - vibrato
W - wide vibrato
tr - trill
TP - tremolo picking
T - tapping
S - slap
P - pop
< - fade in
^ - brush up
v - brush down
Добавлено: 16.07.2012
Другие материалы по этой песне:

Страница создана 08.06.2012
http://primanota.ru/king-crimson/in-the-wake-of-poseidon-chords.htm
Привет, Гость.
Предлагаем пройти революционный курс по гитаре.
Подарок от PrimaNota.Ru, забирай!