PrimaNota.ru - самый крупный в мире бесплатный архив песенных текстов, аккордов, табулатур и нот


King Crimson - Frakctured - аккорды и текст, видео

Регистрация Запомнить меня
Войти через:  Facebook Google Twitter Vk Yandex Mail.ru

King Crimson - Frakctured - аккорды и текст, видео

Печатать
Просмотров: 135
Авторы музыки: Trey Gunn, Pat Mastelotto, Adrian Belew, Robert Fripp

Frakctured
King Crimson
Guitar 1(Fripp) Down 2 Full Steps (Low to High-C F Bb Eb G C)
Guitar 2(Belew) Standard(Low to High-E A D G B E)
 
137 BPM (Quarter Note)
10/4
(Fripp)
E|-------------12-----10---------------|
B|-----11----------------------------9-|
G|----------------------------9--------|
D|-------------------------------------|
A|-------------------------------------|
E|-------------------------------------|
| (Belew) |
E|-------------------------------10-|
B|-11--------------9----------------|
G|------------------------11--------|
D|---------10-----------------------|
A|----------------------------------|
E|----------------------------------|

E|--------------12-----14-|
B|-(9)--11----------------|
G|------------------------|
D|------------------------|
A|------------------------|
E|------------------------|

E|-------------------------8-|
B|-11---------------9--------|
G|---------------------------|
D|----------10---------------|
A|---------------------------|
E|---------------------------|

E|---------------------------------------|
B|-------------17-----15-----------------|
G|-----15-----------------------------13-|
D|----------------------------14---------|
A|---------------------------------------|
E|---------------------------------------|

E|--------------------------------10-|
B|-11--------------9-----------------|
G|------------------------11---------|
D|---------10------------------------|
A|-----------------------------------|
E|-----------------------------------|

E|---------------14-----16-|
B|-------11----------------|
G|-(13)--------------------|
D|-------------------------|
A|-------------------------|
E|-------------------------|

E|-------------------8------10-|
B|--11-------------------------|
G|-----------------------------|
D|-----------10----------------|
A|-----------------------------|
E|-----------------------------|

E|------------16------15---------------|
B|----------------------------------15-|
G|-----17--------------------13--------|
D|-------------------------------------|
A|-------------------------------------|
E|-------------------------------------|

E|-11----------------------------9-|
B|----------------11------9--------|
G|---------9-----------------------|
D|---------------------------------|
A|---------------------------------|
E|---------------------------------|

E|--------------16------15-|
B|-(15)--13----------------|
G|-------------------------|
D|-------------------------|
A|-------------------------|
E|-------------------------|

E|--11-------------------------|
B|------------------11---------|
G|-----------9--------------12-|
D|-----------------------------|
A|-----------------------------|
E|-----------------------------|

E|------------16------15---------------|
B|-----13---------------------------15-|
G|---------------------------13--------|
D|-------------------------------------|
A|-------------------------------------|
E|-------------------------------------|

E|-11----------------------------9-|
B|----------------11------9--------|
G|---------9-----------------------|
D|---------------------------------|
A|---------------------------------|
E|---------------------------------|

E|--------------16------19-|
B|-(15)--13----------------|
G|-------------------------|
D|-------------------------|
A|-------------------------|
E|-------------------------|

E|--11-------------------------|
B|------------------11------12-|
G|-----------9-----------------|
D|-----------------------------|
A|-----------------------------|
E|-----------------------------|

E|-------------16------------------18-----|
B|-19--------------17--19-----------------|
G|-----19------------------19----------17-|
D|---------18------------------18---------|
A|----------------------------------------|
E|----------------------------------------|

E|--------------8------------------10-----|
B|-11---------------9--11-----------------|
G|-----11------------------11-----------9-|
D|---------10------------------10---------|
A|----------------------------------------|
E|----------------------------------------|

E|-------------16------18--16-|
B|-19--------------17---------|
G|-----19---------------------|
D|---------18-----------------|
A|----------------------------|
E|----------------------------|

E|--------------8------10---8-|
B|-11---------------9---------|
G|-----11---------------------|
D|---------10-----------------|
A|----------------------------|
E|----------------------------|

E|--14-(14)-----------------16-(16)---------------------------------18-(18)----|
B|----------15-(15)-----------------17-(17)-19-(19)----------------------------|
G|------------------13-(13)-------------------------19-(19)-----------------17-|
D|----------------------------------------------------------18-(18)------------|
A|-----------------------------------------------------------------------------|
E|-----------------------------------------------------------------------------|

E|-6----------------------8--------------------------------------10---------|
B|--------7-----------------------9------11---------------------------------|
G|----------------5------------------------------11-----------------------9-|
D|-------------------------------------------------------10-----------------|
A|--------------------------------------------------------------------------|
E|--------------------------------------------------------------------------|

E|------------------------------18-(18)-16-20--18-|
B|------19-(19)-----------------------------------|
G|-(17)---------19-(19)---------------------------|
D|----------------------18-(18)-------------------|
A|------------------------------------------------|
E|------------------------------------------------|

E|--------------------------10-------8-----12--10-|
B|--11--------------------------------------------|
G|----------11------------------------------------|
D|------------------10----------------------------|
A|------------------------------------------------|
E|------------------------------------------------|

E|----------------------------------------|
B|-16----------18-------------------------|
G|---------------------20----------19-----|
D|-----18----------20------18----------20-|
A|---------20------------------20---------|
E|----------------------------------------|

E|-11----------12------11-----------9-----|
B|------9----------11-------9----------11-|
G|----------9-------------------9---------|
D|----------------------------------------|
A|----------------------------------------|
E|----------------------------------------|

E|----------------------------|
B|-------------18-------------|
G|-20------------------20-----|
D|-----18----------20---------|
A|---------20--------------22-|
E|----------------------------|

E|-11----------12------11-----|
B|------9----------11---------|
G|----------9--------------12-|
D|----------------------------|
A|----------------------------|
E|----------------------------|

23/4
E|----------------------------------------------------------------------------|
B|----------------------------18-(18)-----------------------------------------|
G|----20-(20)---------------------------------20-(20)-----------------19-(19)-|
D|------------18-(18)-----------------20-(20)---------18-(18)-----------------|
A|--------------------20-(20)---------------------------------20-(20)---------|
E|----------------------------------------------------------------------------|

E|-11---------------------12--------------11-----------------------9---------|
B|---------9----------------------11---------------9----------------------11-|
G|-----------------9---------------------------------------9-----------------|
D|---------------------------------------------------------------------------|
A|---------------------------------------------------------------------------|
E|---------------------------------------------------------------------------|

E|---------------------------------------------------------------|
B|---------------------------------18-(18)----20-----------------|
G|---------20-(20)-----------------------------------------------|
D|-20-(20)---------18-(18)-----------------20-----21--------(21)-|
A|-------------------------20-(20)-------------------------------|
E|---------------------------------------------------------------|

E|-----11----------------------12-------------15-----------------|
B|--------------9----------------------11------------------------|
G|----------------------9-------------------------16--------(16)-|
D|---------------------------------------------------------------|
A|---------------------------------------------------------------|
E|---------------------------------------------------------------|

24/4
(Fripp)
E|-----------------------------------------------------------------------------|
B|-----------------------------------------------------------------------------|
G|-20--------------------------20-----------------------20----(20)--------(20)-|
D|-21--------------------------21-----------------------21----(21)--------(21)-|
A|-----22----(22)--------(22)------22-----(22)----(22)-------------------------|
E|-----------------------------------------------------------------------------|

(Get Ready To Kill Your Fingers)
4/4
E|-------------------------------------------------|
B|-------------------------------------------------|
G|-------------------------------------------------|
D|-------------------------------------------------|
A|-22----------24----------20----------24----22----|
E|----23-21-23----23-21-23----23-21-23----23----23-|

E|-------------------------------------------------|
B|-------------------------------------------------|
G|-------------------------------------------------|
D|-------------------------------------------------|
A|-------24----------20----------24----22-18----18-|
E|-21-23----23-21-23----23-21-23----23-------21----|

E|-------------------------------------------------|
B|-------------------------------------------------|
G|-------------------------------------------------|
D|-19----------21----------------------21----19----|
A|----20-18-20----20-18-20-22-20-18-20----20----20-|
E|-------------------------------------------------|

E|-------------------------------------------------|
B|-------------------------------------------------|
G|-------------------------------------------------|
D|-------21----------------------21----19----------|
A|-18-20----20-18-20-22-20-18-20----20----20-18-20-|
E|-------------------------------------------------|

E|-------------------------------------------------|
B|-------------------------------------------------|
G|-------------17----------------------17----------|
D|-20----------------------18----------------20----|
A|----19-17-19----19-17-19----19-17-19----19----19-|
E|-------------------------------------------------|

E|-------------------------------------------------|
B|-------------------------------------------------|
G|-------17----------------------17----------------|
D|-------------------18----------------20----------|
A|-17-19----19-17-19----19-17-19----19----19-17-19-|
E|-------------------------------------------------|

7/4
E|-------------------------------------------------------|
B|-------------------------------------------------------|
G|-------------------------------------------------------|
D|19----------21----------18----------21----19-----------|
A|---20-18-20----20-18-20----20-18-20----20----20-18-20--|
E|-------------------------------------------------------|

E|-------------------------------|
B|-------------------------------|
G|-------------------------------|
D|-21----------22----------24----|
A|----20-18-20----23-21-23----23-|
E|-------------------------------|

4/4
E|-------------------------------------------------|
B|-------------------------------------------------|
G|-20----------22----------------------22----20----|
D|----21-19-21----21-19-21-23-21-19-21----21----21-|
A|-------------------------------------------------|
E|-------------------------------------------------|

E|-------------------------------------------------|
B|-------------------------------------------------|
G|-------22----------------------22----20----------|
D|-19-21----21-19-21-23-21-19-21----21----21-19-21-|
A|-------------------------------------------------|
E|-------------------------------------------------|

E|-------------------------------------------------|
B|-------------20----------------------20----------|
G|-22----------------------20----------------22----|
D|----21-19-21----21-19-21----21-19-21----21----21-|
A|-------------------------------------------------|
E|-------------------------------------------------|

E|-------------------------------------------------|
B|-------20----------------------20----------------|
G|-------------------20----------------22----------|
D|-19-21----21-19-21----21-19-21----21----21-19-21-|
A|-------------------------------------------------|
E|-------------------------------------------------|

E|-------------16----------12----------16----------|
B|----------------13----13----13----13-------19----|
G|-23-------17-------15----------15-------17----17-|
D|----22-20----------------------------------------|
A|-------------------------------------------------|
E|-------------------------------------------------|

E|-------16----------12----------16----------------|
B|----13----------13----13-11-13-------19-------13-|
G|-15-------17-15-------------------17----17-15----|
D|-------------------------------------------------|
A|-------------------------------------------------|
E|-------------------------------------------------|

7/4
E|-13----------15----15----------17----17----------19----20----------22----|
B|----14-12-14----14----16-14-16----------18-16-18----18----21-19-21----21-|
G|-------------------------------------------------------------------------|
D|-------------------------------------------------------------------------|
A|-------------------------------------------------------------------------|
E|-------------------------------------------------------------------------|

10/4
(Fripp)
E|-24-23----23----24-23----23----24-23----23----24-23----23----|
B|-------21----21-------21----21-------21----21-------21----21-|
G|-------------------------------------------------------------|
D|-------------------------------------------------------------|
A|-------------------------------------------------------------|
E|-------------------------------------------------------------|

 (Belew)
E|-------------15----------------------------15-------------|
B|-------17----------------17----------17----------------17-|
G|-------------------16----------17----------------16-------|
D|----------------------------------------------------------|
A|----------------------------------------------------------|
E|----------------------------------------------------------|

E|-24-23----23----24-23----23----24-23----23----24-23----23----|
B|-------20----20-------20----20-------20----20-------20----20-|
G|-------------------------------------------------------------|
D|-------------------------------------------------------------|
A|-------------------------------------------------------------|
E|-------------------------------------------------------------|

E|-------------15----------------------------15-------------|
B|-------16----------------16----------16----------------16-|
G|-17----------------16----------17----------------16-------|
D|----------------------------------------------------------|
A|----------------------------------------------------------|
E|----------------------------------------------------------|

E|-22-21----21----22-21----21----22-21----21----22-21----21----|
B|-------19----19-------19----19-------19----19-------19----19-|
G|-------------------------------------------------------------|
D|-------------------------------------------------------------|
A|-------------------------------------------------------------|
E|-------------------------------------------------------------|

E|-------------13----------------------------13-------------|
B|-------15----------------15----------15----------------15-|
G|-15----------------14----------15----------------14-------|
D|----------------------------------------------------------|
A|----------------------------------------------------------|
E|----------------------------------------------------------|

E|-22-21----21----22-21----21----22-21----21----22-21----21----|
B|-------18----18-------18----18-------18----18-------18----18-|
G|-------------------------------------------------------------|
D|-------------------------------------------------------------|
A|-------------------------------------------------------------|
E|-------------------------------------------------------------|

E|-------------13----------------------------13-------------|
B|-------14----------------14----------14----------------14-|
G|-15----------------14----------15----------------14-------|
D|----------------------------------------------------------|
A|----------------------------------------------------------|
E|----------------------------------------------------------|

E|-20-19----19----20-19----19----20-19----19----20-19----19----|
B|-------17----17-------17----17-------17----17-------17----17-|
G|-------------------------------------------------------------|
D|-------------------------------------------------------------|
A|-------------------------------------------------------------|
E|-------------------------------------------------------------|

E|-------------11----------------------------11-------------|
B|-------13----------------13----------13----------------13-|
G|-13----------------12----------13----------------12-------|
D|----------------------------------------------------------|
A|----------------------------------------------------------|
E|----------------------------------------------------------|

9/4
E|-20-19----19----20-19----19----20-19----19----(19)-|
B|-------16----16-------16----16-------15------------|
G|---------------------------------------------------|
D|---------------------------------------------------|
A|---------------------------------------------------|
E|---------------------------------------------------|

E|-------------11------------------------------------|
B|-------12----------------12-------------11----(11)-|
G|-13----------------12----------12----12------------|
D|---------------------------------------------------|
A|---------------------------------------------------|
E|---------------------------------------------------|

7/4
(Grandmaster Fripp)
E|---------------------------------------------------------|
B|------------------------------------16-------------------|
G|19----------21----------18----------------17----------19-|
D|---20-18-20----20-18-20----17-15-17----17----18-16-18----|
A|---------------------------------------------------------|
E|---------------------------------------------------------|

E|----------------------------|
B|----------------------14----|
G|----------16----------------|
D|-18-16-18----15-13-15----15-|
A|----------------------------|
E|----------------------------|

4/4
E|-------------------------------------------------|
B|-------------------------------------------------|
G|-15----------17----------------------17----15----|
D|----16-14-16----16-14-16-18-16-14-16----16----16-|
A|-------------------------------------------------|
E|-------------------------------------------------|

E|-------------------------------------------------|
B|-------------------------------------------------|
G|-------17----------------------17----15----------|
D|-14-16----16-14-16-18-16-14-16----16----16-14-16-|
A|-------------------------------------------------|
E|-------------------------------------------------|

E|-------------------------------------------------|
B|-------------15----------------------15----------|
G|-17----------------------15----------------17----|
D|----16-14-16----16-14-16----16-14-16----16----16-|
A|-------------------------------------------------|
E|-------------------------------------------------|

E|-------------------------------------------------|
B|-------15----------------------15----------------|
G|-------------------15----------------17----------|
D|-14-16----16-14-16----16-14-16----16----16-14-16-|
A|-------------------------------------------------|
E|-------------------------------------------------|

E|------------11---------7-------11----------|
B|-14-------8----------8---8-6-8-------14----|
G|----12-10------12-10--------------12----12-|
D|-------------------------------------------|
A|-------------------------------------------|
E|-------------------------------------------|

E|------11---------7-------11---------------|
B|----8----------8---8-6-8-------14-------8-|
G|-10------12-10--------------12----12-10---|
D|------------------------------------------|
A|------------------------------------------|
E|------------------------------------------|

7/4
E|-8-------10-------7-------9--------------8-------5-------7---|
B|---9-7-9----9-7-9---6-4-6------11------7---7-5-7---4-2-4-----|
G|----------------------------10----11-9---------------------8-|
D|-------------------------------------------------------------|
A|-------------------------------------------------------------|
E|-------------------------------------------------------------|

4/4
E|---------6---------------6---4---|-----6---------------6---4-------|
B|-9-----5---5-3-5-7-5-3-5---5---5-|-3-5---5-3-5-7-5-3-5---5---5-3-5-|
G|---9-7---------------------------|---------------------------------|
D|---------------------------------|---------------------------------|
A|---------------------------------|---------------------------------|
E|---------------------------------|---------------------------------|
Добавлено: 05.01.2014
Другие материалы по этой песне:

Страница создана 24.06.2012
http://primanota.ru/king-crimson/frakctured-chords.htm
Привет, Гость.
Предлагаем пройти революционный курс по гитаре.
Подарок от PrimaNota.Ru, забирай!