PrimaNota.ru - самый крупный в мире бесплатный архив песенных текстов, аккордов, табулатур и нот


King Charles - Loose Change For The Boatman - аккорды и текст, видео

Регистрация Запомнить меня
Войти через:  Facebook Google Twitter Vk Yandex Mail.ru

King Charles - Loose Change For The Boatman - аккорды и текст, видео

Печатать
Просмотров: 112
Loose Change For The Boatman
King Charles
King Charles - Loose Change for the Boatman
*lyrics and chords are both by ear since nothing official has been released so take cum grano salis*


No Capo

Alternately, you can Capo 4 and take everything -4 for how he plays it.


    C#m                                     A
You say your love for me has waned from the storm
     C#m                                     A
Your passions have fallen from the flames of old
   E                            A
If ever you loved me if ever at all
         B         A           C#m
And our souls are tied forever more



            C#m
Well I got stopped at terminal four the other day
      E
They said I looked like a terrorist at play
   A
I told them to believe it

I'm here to cause seizures
 B                                            E
Staring at the demons in the darkest and the deepest


            C#m
Well I'm a lion in the haze and a lamb in the lightening
 E
All the spears and chains and flames around my neck are tightening
     A
So line up your armies burn down my home please
 B                                                   E
Take the breath that's in my lungs and the song I'm singing



     C#m                                     A
You say your love for me has waned from the storm
      C#m                                     A
Your passions have fallen from the flames of old
    E                            A
If ever you loved me if ever at all
     B         A            C#m
Our souls are tied forever more



C#m E A B

Lead Guitar :
e|----------------------------------------------------------------------------------------------|
B|-----------------------------------------------------14--12-----------------------------------|
G|---9--13--9---13h14-13--9---9--13--9---13h14-13--9-----------9--13h14-13--9--11---------------|
D|----------------------------------------------------------------------------------------------|
A|----------------------------------------------------------------------------------------------|
E|----------------------------------------------------------------------------------------------|

e|----------------------------|
B|---------12-----------------|
G|---11-13------13-11-9-------|
D|----------------------------|
A|----------------------------|
E|----------------------------|


    C#m
Of course there is another place where my heart will learn again to beat
 E
Another land another king where I will need to sing
        A
But my soul can't be yours can't be bought by gold
         B                                             E
All the lovers in the land know the wise man from the fool


             C#m
Cause there ain't no soul in this empty sea
      E
Competition for the darkness to be the kings and queens
       A
Cause darkness is found as an absence of light
       B                                                E
You believe there is no devil cause he roped you in so tight



     C#m                                     A
You say your love for me has waned from the storm
      C#m                                     A
Your passions have fallen from the flames of old
    E                            A
If ever you loved me if ever at all
     B         A            C#m
Our souls are tied forever more



C#m E A B  x2   E

Same Guitar Lead :
e|----------------------------------------------------------------------------------------------|
B|-----------------------------------------------------14--12-----------------------------------|
G|---9--13--9---13h14-13--9---9--13--9---13h14-13--9-----------9--13h14-13--9--11---------------|
D|----------------------------------------------------------------------------------------------|
A|----------------------------------------------------------------------------------------------|
E|----------------------------------------------------------------------------------------------|

e|----------------------------|
B|---------12-----------------|
G|---11-13------13-11-9-------|
D|----------------------------|
A|----------------------------|
E|----------------------------|


 E
All I want is on my mind and
 A                B
All you were was some of my time
E                     C#m         E    A  B  E
I didn't know what it is to be alive




Open to suggestions/improvements.
Добавлено: 22.04.2016
Другие материалы по этой песне:
  • Аккорды и текст

Страница создана 22.04.2016
http://primanota.ru/king-charles/loose-change-for-boatman-chords.htm
Привет, Гость.
Предлагаем пройти революционный курс по гитаре.
Подарок от PrimaNota.Ru, забирай!