PrimaNota.ru - самый крупный в мире бесплатный архив песенных текстов, аккордов, табулатур и нот


King 810 - Take It - таба, видео

Регистрация Запомнить меня
Войти через:  Facebook Google Twitter Vk Yandex Mail.ru

King 810 - Take It - таба, видео

Печатать
Просмотров: 352
verse: the upper note is optional

E|-------------------------------------------|
B|-------------------------------------------|
G|-------------------------------------------|
D|---7-7--7-7--7-7--7-7--7-7--7-7-7-7-7-7-7--|
A|-0-7-70-7-70-7-70-7-70-6-60-6-60-6-60-6-60-|
E|-------------------------------------------|

chorus:

E| -0--00-00-----1-1--1-11-1----------------1-1-----0----|
B| -1--11-11-----1-1--1-11-1----------------1-1----1-----|
G| -2--22-22-----2-2--2-22-2----------------2-2---2------|
D| -2--22-22-----3-3--3-33-3----------------3-3--2-------|
A| -0--00-00-----3-3--3-33-3-----2--22-2-3--3-3----------|
E| -----------1--1-1--1-11-1-----0--00-0-1--1-1----------|
Добавлено: 01.08.2015
Другие материалы по этой песне:
  • Аккорды и текст

Страница создана 01.08.2015
http://primanota.ru/king-810/take-it-chords.htm
Привет, Гость.
Предлагаем пройти революционный курс по гитаре.
Подарок от PrimaNota.Ru, забирай!