PrimaNota.ru - самый крупный в мире бесплатный архив песенных текстов, аккордов, табулатур и нот


King 810 - Murder Murder Murder - таба, видео

Регистрация Запомнить меня
Войти через:  Facebook Google Twitter Vk Yandex Mail.ru

King 810 - Murder Murder Murder - таба, видео

Печатать
Просмотров: 448
Уроки эстрадного вокала в Санкт-Петербурге
KING 810

MURDER MURDER MURDER

DROP A 


TABBED BY andherembrace





0:58


-------------------------------------------------------------------------------|
-------------------------------------------------------------------------------|
-------------------------------------------------------------------------------|
-------------------------------------------------------------------------------|
-------------------------------------------------------------------------------|
-00-0-00-0-00-1-0----00-0-00-0-00-1-0----00-0-00-0-00-1-0----00-0-00-0-00-1-0--|
 **   **   **        **   **   **        **   **   **        **   **   **    


-----------------------------------------------------------------------------|
-----------------------------------------------------------------------------|
-----------------------------------------------------------------------------|
---------------------------------------------------------------3-3--3--3--0--|
---------------------------------------------------------------3-3--3--3--0--|
-00-0-00-0-00-1-0----00-0-00-0-00-1-0----00-0-00-0-00-4-1----0-3-3--3--3--0--|
 **   **   **        **   **   **        **   **   **        *    |  |   




1:10

------------------------------------------------------------------------|
------------------------------------------------------------------------|
------------------------------------------------------------------------|
----0----1-0-------0----0----1-0-------0----0----1-0-------3-3--3--3-3--|
----0----1-0-------0----0----1-0-------0----0----1-0-------3-3--3--3-3--|
-00-0-00-1-0----00-0-00-0-00-1-0----00-0-00-0-00-1-0----00-3-3--3--3-3--|
 **   **        **   **   **        **   **   **        **    |  |
 


-----------------------------------------------------------------------------|
-----------------------------------------------------------------------------|
-----------------------------------------------------------------------------|
----0----0----1-0-------0----0----1-0-------0----0----1-0-------3-3--3--3-3--|
----0----0----1-0-------0----0----1-0-------0----0----1-0-------3-3--3--3-3--|
-00-0-00-0-00-1-0----00-0-00-0-00-1-0----00-0-00-0-00-1-0----00-3-3--3--3-3--|
 **   **   **        **   **   **        **   **   **        **    |  |





1:23

----------------------------------------------------------------|
----------------------------------------------------------------|
----------------------------------------------------------------|
-0--0-1-0-3-3-3-0--0-1-0-3-3-3-0--0-1-0-3-3-3--5--5-5--6-6-6-6--|
-0--0-1-0-3-3-3-0--0-1-0-3-3-3-0--0-1-0-3-3-3--5--5-5--6-6-6-6--|
-0--0-1-0-3-3-3-0--0-1-0-3-3-3-0--0-1-0-3-3-3--5--5-5--6-6-6-6--|

---------------------------------------------------------------|
---------------------------------------------------------------|
---------------------------------------------------------------|
-0--0-1-0-3-3-3-0--0-1-0-3-3-3-0--0-1-0-3-3-3-5-5-5-5-6--1-1---|
-0--0-1-0-3-3-3-0--0-1-0-3-3-3-0--0-1-0-3-3-3-5-5-5-5-6--1-1---|
-0--0-1-0-3-3-3-0--0-1-0-3-3-3-0--0-1-0-3-3-3-5-5-5-5-6--1-1---|
                                                       |



1:35


-------------------------------------------------------------------------------|
-------------------------------------------------------------------------------|
-------------------------------------------------------------------------------|
-------------------------------------------------------------------------------|
-------------------------------------------------------------------------------|
-00-0-00-0-00-1-0----00-0-00-0-00-1-0----00-0-00-0-00-1-0----00-0-00-0-00-1-0--|
 **   **   **        **   **   **        **   **   **        **   **   **    


------------------------------------------------------------------------------|
------------------------------------------------------------------------------|
------------------------------------------------------------------------------|
----------------------------------------------------------------3-3--3--3--0--|
----------------------------------------------------------------3-3--3--3--0--|
-00-0-00-0-00-1-0----00-0-00-0-00-1-0----00-0-00-0-00-4-xxxx-xx-3-3--3--3--0--|
 **   **   **        **   **   **        **   **   **              |  |   






-------------------------------------------------------------------------|
-------------------------------------------------------------------------|
-------------------------------------------------------------------------|
----0----1-0-------0----0----1-0-------0----0----1-0-------3-3--3--3-3-0-|
----0----1-0-------0----0----1-0-------0----0----1-0-------3-3--3--3-3-0-|
-00-0-00-1-0----00-0-00-0-00-1-0----00-0-00-0-00-1-0----00-3-3--3--3-3-0-|
 **   **        **   **   **        **   **   **        **    |  |
 


-----------------------------------------------------------------------------|
-----------------------------------------------------------------------------|
-----------------------------------------------------------------------------|
----0----0----1-0-------0----0----1-0-------0----0----1-0-------3-3--3--3-3--|
----0----0----1-0-------0----0----1-0-------0----0----1-0-------3-3--3--3-3--|
-00-0-00-0-00-1-0----00-0-00-0-00-1-0----00-0-00-0-00-1-0----00-3-3--3--3-3--|
 **   **   **        **   **   **        **   **   **        **    |  |





2:03


---------------------------------------------------------------|
---------------------------------------------------------------|
---------------------------------------------------------------|
-0--0-1-0-3-3-3-0--0-1-0-3-3-3-0--0-1-0-3-3-3--5--5-5--6-6-6-6-|
-0--0-1-0-3-3-3-0--0-1-0-3-3-3-0--0-1-0-3-3-3--5--5-5--6-6-6-6-|
-0--0-1-0-3-3-3-0--0-1-0-3-3-3-0--0-1-0-3-3-3--5--5-5--6-6-6-6-|

---------------------------------------------------------------|
---------------------------------------------------------------|
---------------------------------------------------------------|
-0--0-1-0-3-3-3-0--0-1-0-3-3-3-0--0-1-0-3-3-3-5-5-5-5-6--1-1---|
-0--0-1-0-3-3-3-0--0-1-0-3-3-3-0--0-1-0-3-3-3-5-5-5-5-6--1-1---|
-0--0-1-0-3-3-3-0--0-1-0-3-3-3-0--0-1-0-3-3-3-5-5-5-5-6--1-1---|
                                                       |




----------------------------------------------------------------|
----------------------------------------------------------------|
----------------------------------------------------------------|
-0--0-3-0-1-1-1-0--0-3-0-1-1-1-0--0-3-0-1-1-1--5--5-5--6-6-6-6--|
-0--0-3-0-1-1-1-0--0-3-0-1-1-1-0--0-3-0-1-1-1--5--5-5--6-6-6-6--|
-0--0-3-0-1-1-1-0--0-3-0-1-1-1-0--0-3-0-1-1-1--5--5-5--6-6-6-6--|


-------------------------------------------------------------------|
-------------------------------------------------------------------|
-------------------------------------------------------------------|
-0--0-3-0-1-1-1-0--0-3-0-1-1-1-0--0-3-0-1-1-1-0-5-6-5-3-5-3-1--0---|
-0--0-3-0-1-1-1-0--0-3-0-1-1-1-0--0-3-0-1-1-1-0-5-6-5-3-5-3-1--0---|
-0--0-3-0-1-1-1-0--0-3-0-1-1-1-0--0-3-0-1-1-1-0-5-6-5-3-5-3-1--0---|



---------------------------------------------------------------------|
---------------------------------------------------------------------|
---------------------------------------------------------------------|
----4-3---3-2-1-----------4-----3-----0-------------4-----3----------|
----4-3-1-3-2-1-----------4-3-2-3-2-1-0-------------4-3-2-3-2-0------|
-00-4-3-1-3-2-1--------00-4-3-2-3-2-1-0----------00-4-3-2-3-2-0------|
 **     *        |     **   * *   * *   |        **   * *   * *


----------------------------------------------------------------------------|
---------------------------------------------depress before nut then release|
----------------------------------------------------------------------------|
----------------------------------------------------------------------------|
-1--------4--------4--------3--------3--------2--------1------+-------------|
-1--------4--------3--------2--------3--------2--------1------0-[0]---------|
                                                         |   



CLEAN WREVERB + DELAY

-----------------------------------------------------------------------[6-]---------[10]-|
-----------------------------------------------------------------------[10]---------[14]-|
-------15--14--------15\-----------------------------------------------------------------|
-[12]----------12----------------------7--8--7---------7--8--7----------------[12]-------|
------------------------------------0----------------0-----------------------------------|
---------------------------------0----------------0--------------------------------------|



---------------------------------------------------------------|
---------------------------------------------------------------|
---------------------------------------------------------------|
-0--0-1-0-3-3-3-0--0-1-0-3-3-3-0--0-1-0-3-3-3--5--5-5--6-6-6-6-|
-0--0-1-0-3-3-3-0--0-1-0-3-3-3-0--0-1-0-3-3-3--5--5-5--6-6-6-6-|
-0--0-1-0-3-3-3-0--0-1-0-3-3-3-0--0-1-0-3-3-3--5--5-5--6-6-6-6-|



----------------------------------------------------------------|
----------------------------------------------------------------|
----------------------------------------------------------------|
-0--0-3-0-1-1-1-0--0-3-0-1-1-1-0--0-3-0-1-1-1-5-x-x-x-x-x-x-x-x-|
-0--0-3-0-1-1-1-0--0-3-0-1-1-1-0--0-3-0-1-1-1-5-x-x-x-x-x-x-x-x-|
-0--0-3-0-1-1-1-0--0-3-0-1-1-1-0--0-3-0-1-1-1-5-x-x-x-x-x-x-x-x-|




-------------------------------------------------------------------------------|
-------------------------------------------------------------------------------|
-------------------------------------------------------------------------------|
-------------------------------------------------------------------------------|
----------------------------------------------------------------3-3--3--3-3-0--|
-00-0-00-0-00-1-0----00-0-00-0-00-1-0----00-0-00-0-00-1-0----00-3-3--3--3-3-0--|
 **   **   **        **   **   **        **   **   **        **    |  |    



-----------------------------------------------------------------------------|
-----------------------------------------------------------------------------|
-----------------------------------------------------------------------------|
-----------------------------------------------------------------------------|
----------------------------------------------------------------3-3--3--6-5--|
-00-0-00-0-00-1-0----00-0-00-0-00-1-0----00-0-00-0-00-1-0----00-3-3--3--6-5--|
 **   **   **        **   **   **        **   **   **        **    |  |    


------------------------------------------------------------------------------------|
----------H---H---H-------------H---H---H-------------H---H---H---------------------|
---------2.1-2.1-2.1-----------2.1-2.1-2.1-----------2.1-2.1-2.1--------------------|
-0---1---2.1-2.1-2.1--0---1----2.1-2.1-2.1--0---1----2.1-2.1-2.1--5--5-5--6-6-6-6---|
-0-0-1-0--------------0-0-1-0---------------0-0-1-0---------------5--5-5--6-6-6-6---|
-0-0-1-0--------------0-0-1-0---------------0-0-1-0---------------5--5-5--6-6-6-6---|
   *   *                *   *                 *   *                     



--------------------------------------------------------------------------------------|
----------H---H---H-------------H---H---H-------------H---H---H-----------------------|
-2---3---2.1-2.1-2.1--2---3----2.1-2.1-2.1--2---3----2.1-2.1-2.1----------------------|
-0---1---2.1-2.1-2.1--0---1----2.1-2.1-2.1--0---1----2.1-2.1-2.1----------------------|
-0-0-1-0--------------0-0-1-0---------------0-0-1-0-----------------5-6-5-3-5-3-1-0-0-|
-0-0-1-0--------------0-0-1-0---------------0-0-1-0--------------00-5-6-5-3-5-3-1-0-0-|
   *   *                *   *                 *   *              **       

Добавлено: 20.11.2014
Другие материалы по этой песне:
  • Аккорды и текст

Страница создана 20.11.2014
http://primanota.ru/king-810/murder-murder-murder-chords.htm
Привет, Гость.
Предлагаем пройти революционный курс по гитаре.
Подарок от PrimaNota.Ru, забирай!