PrimaNota.ru - самый крупный в мире бесплатный архив песенных текстов, аккордов, табулатур и нот


Kind Of Like Spitting - Short Story Long - таба, видео

Регистрация Запомнить меня
Войти через:  Facebook Google Twitter Vk Yandex Mail.ru

Kind Of Like Spitting - Short Story Long - таба, видео

Печатать
Просмотров: 91
---------------------------------------------------------------------
         Short Story long - Kind of like spitting
-------------------------------------------------------------------------------

Tabbed by:fred 
Email:punkguy2121@yahoo.fr

Tuning:normal

you ask me who i have been with
e|---------------------------------------------------------------
B|---8-------- 5---- 5------------------------------------------|
G|----9--9--- 4--- 45-3-2---------0 ----------------------------|
D|-----10----------------3-3--------2---------------------------|
A|-77------- 3-- 3--------3---3 3---- 3-------------------------|
E|------------------  1-----------------------------------------|
and i can answer honestly
e|----------------------------------------- 3--------------|
B|-----8 -----------6------5-------6------ 3----3----------|
G|-------9-- 9----4--4---4---4---5---------------0---------|
D|--------10------------------------5/7--5---------0-------|
A|-7 7 ---------3----- 3-------3-------- 5-----------------|
E|---------------------------------------------------------|
i beg you for forgiveness...
e|-------------------------1-0--------5---5----------7-----|
B|------0--------1-1-------0--------- 5----5-----/-7 -13---|
G|--------0------2-- 2-0---2-------0--5-----5--/-7--- 13--|
D|----------0----3--------------------3--------------------|
A|---------------3-----------------------------------------|
E|-3 3-----------------------------------------------------|
and now i feel uncomfortable...
e|---------------------------------------------------------|
B|----3----3----3----3-------------------------------------|
G|---4-4--4-4--4-4--4-4---2--------------------------------|
D|--5----5----5----5-------3-3-\~5-------------------------|
A|--------------------------3- \~5-------------------------|
E|----------------------1----------------------------------|
you finally seem     lead        
e|-----------------|---------------------------------------|
B|----8---------5--|--56\8 867---55-88---------------------|
G|-----9--9----4-4-|-------------------9-7-----------------|
D|------10--------0|---------------------------------------|
A|-77------- 3-----|---------------------------------------|
E|-----------------|-1-------------------------------------|
                     second guitar
e|-----------------|---------------------------------------|
B|-----------------|---------------------------------------|
G|-----------------|--- 2-------------0--------------------|
D|-----------------|--3- 3 3-------2-----------------------|
A|-----------------|------------3--------------------------|
E|-----------------|1--------------------------------------|

e|-----------------------------------------  -3---3--------|
B|-----8 -----------6------5-------6------  -3-------------|
G|-------9-- 9----4--4---4---4---5-------------------------|
D|--------10----------------------------3p5 5------5-------|
A|-7 7 ---------3----- 3-------3-------- ------------------|
E|---------------------------------------------------------|
so fast you became important to me
e|-------------------------5---5-------------4-------------|
B|----0-1-0----1-----------5----5------------4-------------|
G|-4--------2--2--4--4-----5-----5\7-5-7-------------------|
D|-5--------------5---5---------- -------------------------|
A|-5--------------5----5---3-----------------3-------------|
E|-3--------------3----------------------------------------|










e|---------------------------------------------------------|
B|----3----3----3----3-------------------------------------|
G|---4-4--4-4--4-4--4-4---2--------------------------------|
D|--5----5----5----5-------3-3-\~5-------------------------|
A|--------------------------3- \~5-------------------------|
E|----------------------1----------------------------------|
it was a 26th...
e|---------------------------------------9-----------|
B|----3----------8---- 8-----3------------8---8------|
G|---4-4--4-0---9-9-- 9-9---4-4--4-0---9-----9-9-----|
D|--5--- 5-3--10--- 10-----5----5-3--10----10--------|
A|------------------------------------------------- -|
E|---------------------------------------------------|

e|----------------------------1--|
B|----3----------8---- 8------1---0------|
G|---4-4--4-0---9-9-- 9-9-----2---4----------------------|
D|--5--- 5-3--10--- 10--------3---5---------------------|
A|----------------------------3---5|
E|--------------------------1-1---3-
the idea of getting rid of what
e|---------------------------------------9------------|
B|----3----------8---- 8-----3------------8---8-------|
G|---4-4--4-0---9-9-- 9-9---4-4--4-0---9-----9-9- ----|
D|--5--- 5-3--10--- 10-----5----5-3--10----10---------|
A|----------------------------------------------------|
E|----------------------------------------------------|

e|--------------------------------- 3 --|
B|----3----------8---- 8----656---------|
G|---4-4--4-0---9-9-- 9-9---------0-----|
D|--5--- 5-3--10--- 10------------------|
A|-------------------------3------------|
E|--------------------------------------|

e|-------------------------8---5--3-----------|
B|--5--------5-----------------5--5----565----|
G|---5-------4-5--------9---------------------|X2
D|----5\7-------5\7\---9-----3---3---3--------|
A|-3------3-------------------------------0---|
E|--------------------------------------------|

e|-------------------------8---5--3-------------9-|
B|--5--------5-----------------5--5----565----8--0|
G|---5-------4-5---------9----------------8-7----0|
D|----5\7-------5\7---10-----3---3---3-----------3|
A|-3------3--------------------------------------2|
E|------------------------------------------------|


===============================================================================


     
Добавлено: 23.09.2013
Другие материалы по этой песне:
  • Аккорды и текст

Страница создана 23.09.2013
http://primanota.ru/kind-of-like-spitting/short-story-long-chords.htm
Привет, Гость.
Предлагаем пройти революционный курс по гитаре.
Подарок от PrimaNota.Ru, забирай!