PrimaNota.ru - самый крупный в мире бесплатный архив песенных текстов, аккордов, табулатур и нот


Kind Of Like Spitting - Birds Of A Feather - таба, видео

Регистрация Запомнить меня
Войти через:  Facebook Google Twitter Vk Yandex Mail.ru

Kind Of Like Spitting - Birds Of A Feather - таба, видео

Печатать
Просмотров: 146
Kind of Like Spitting - Birds of a Feather

This is a great track to play.  I just worked it out last night, sitting there until 
four in the morning strumming away at it.  There's a few little bits that I'm still
unsure like the second chord in the second break, but it sounds quite like a C5, so
I put that down for the time being.

*Update*  I've added a second version down the bottom which is taken from a live video 
the Fireside Bowl, so you may find parts of it more accurate than the top version 
as I realised I missed a few little notes out that I knew).

Standard Tuning

Intro/Verse
|--------------------0-0----------------------------0--0-0------3------|
|---------0------0---0-0----------------------------5--5-5--5/6---6-5--|
|---------5--5/--7-x-5-5--4h5p4---------------------0--0-0-------------|
|-------5-5--5/--7-x-5-5--------5h7p5-----------5---5--5-5-------------|
|-----3---3--3/--5-x-3-3--------------5/3-----3---5-5--5-5-------------|
|-3/5-------------------------------------3/5--------------------------|

Chorus (strum)
|-0--0---1--3---0--0---0--0---|
|-1--1---1--3---1--1---1--0---|
|-0--2---2--0---0--2---2--2---|
|-2--2---3--0---2--2---2--2---|
|-3--0---3--2---3--0---0--0---|
|-----------------------------|

Break 1
|----10-10-10--10--7---------|
|----8--8--8---8---8--8--8---|
|----7--7--7---7---7--7--7---|
|-7-------------------10-10--|
|----------------------------|
|----------------------------|

Break 2 (strum)
|-10------------|--------------|
|-8-------------|--------------|
|-7-------------|-5------------|
|-10------------|-5------------|
|---------------|-3------------|
|---------------|-3------------|

Outro
|---3---1---0---0-----0-------0-----------------------------------|
|-1---1---1---1-----1---1---1---1-----1-------1-------1-------1---|
|-----------------2-------2---------2---2---2---2---2---2---2---2-|
|---------------------------------2-------2-------3-------3-------|
|-----------------------------------------------------------------|
|-----------------------------------------------------------------|

---3---1---0---0-----0-------0-------0-------0-------------------0--|
-1---1---1---1-----1---1---1---1---1---1---1---1-----1-----------1--|
-----------------2-------2-------2-------2---------2---2---2---2-0--|
-------------------------------------------------0-------0---3---2--|
-----------------------------------------------------------------3--|
--------------------------------------------------------------------|

_____________________________________
Live at the Fireside Bowl video version

Verse
|---------3-------------0----------------------------0-0--0------3------|
|---------0--0/--0--1---1--0h1p0---------------------5-5--5--5/6---6-5--|
|---------0--0/--0--0---0--------0-0h2p0-------------0-0--0-------------|
|-------5-2--2/--3--2-2-2----------------0---------5-3-3--3-------------|
|-----3---3--3/--5--3-3-3------------------3-----3---5-5--5-------------|
|-3/5----------------------------------------3/5------------------------|
          ^sometimes bend chord

Chorus
|-0-------0--0-0-0---------0-------3--3-3-3-3-0-------0--0-0-0-----0--0--0-|
|-1-3-3/5-1--1-1-1h3p1-----1-3-3/5-0--0-0-0-0-1-3-3/5-1--1-1-1-----0--0--0-|
|-0-------0--0-0-0-----2p0-0-------0--0-0-0-0-0-------0--0-0-0-----2--2--2-|
|-2-------2--2-2-2---------2-------0--0-0-0-0-2-------2--2-2-2-3-3-3--3--3-|
|-3-------3--3-3-3---------3-------2--2-2-2-2-3-------3--3-3-3-3-3-3--3--3-|
|----------------------------------3--3-3-3-3----------------------1--1--1-|


Break
|----10--10-x-x-10-----------10-----10-----10-----10--10-x-x-10----------|
|----8---8--x-x-8---12--8-8-----8------8----------8---8--x-x-8---12--8-8-|
|----9---9--x-x-9---10--9-9-------9------9--------9---9--x-x-9---10--9-9-|
|----x---x--x-x-x---10--x-x-----------------------x---x--x-x-x---10--x-x-|
|-8--8---8--x-x-8---x---8-8--------------------8--8---8--x-x-8---x---8-8-|
|-------------------11-------------------------------------------11------|


------------0--0-0-0-0-----0-0---3--3-3-3-3-3--0--15--|
------------3--3-3-3-3--0--3-3---0--0-0-0-0-0--1--13--|
------------0--0-0-0-0--0--2-2---0--0-0-0-0-0--0--x---|
------------0--0-0-0-0--2--0-0---0--0-0-0-0-0--2--15--|
------------2--2-2-2-2--3--3-3---2--2-2-2-2-2--3------|
-12/--0-1-3-3--3-3-3-3-----------3--3-3-3-3-3---------|


Solo
|-----------------------------|
|-12h13p12-10--8-8h10p8-0---0-|
|-------------------------5---|
|-----------------------------|
|-----------------------------|
|-----------------------------| x3


|-----------------------10----10----10----|
|-12h13p12-10--8--12h13----13----13----13-|
|-----------------------------------------|
|-----------------------------------------|
|-----------------------------------------|
|-----------------------------------------|

|-----------------------------|
|-12h13p12-10--8-8h10p8-0---0-|
|-------------------------5---|
|-----------------------------|
|-----------------------------|
|-----------------------------| x3

|-------10----10----------10----10----12-10----|
|-12h13----13----13-12h13----13----13-------13-|
|----------------------------------------------|
|----------------------------------------------|
|----------------------------------------------|
|----------------------------------------------|

|-----------------------------|
|-12h13p12-10--8-8h10p8-0---0-|
|-------------------------5---|
|-----------------------------|
|-----------------------------|
|-----------------------------| x3

|-----------10----13----12-10--|
|-12h13p12-----10----10--------|
|------------------------------|
|------------------------------|
|------------------------------|
|------------------------------|

|-----------------------------|
|-12h13p12-10--8-8h10p8-0---0-|
|-------------------------5---|
|-----------------------------|
|-----------------------------|
|-----------------------------| x3

|-------10--12--10------|
|-12h13-------------13--|
|-----------------------|
|-----------------------|
|-----------------------|
|-----------------------|

Outro
|---3---1---0---0-----0-------0-----------------------------------|
|-1---1---1---1-----1---1---1---1-----1-------1-------1-------1---|
|-----------------2-------2---------2---2---2---2---2---2---2---2-|
|---------------------------------2-------2-------3-------3-------|
|-----------------------------------------------------------------|
|-----------------------------------------------------------------|

---3---1---0---0-----0-------0-------0-------0-------------------0--|
-1---1---1---1-----1---1---1---1---1---1---1---1-----1-----------1--|
-----------------2-------2-------2-------2---------2---2---2---2-0--|
-------------------------------------------------0-------0---3---2--|
-----------------------------------------------------------------3--|
--------------------------------------------------------------------|

any questions? andrewbiles@hotmail.com
Добавлено: 02.07.2012
Другие материалы по этой песне:
  • Аккорды и текст

Страница создана 02.07.2012
http://primanota.ru/kind-of-like-spitting/birds-of-a-feather-chords.htm
Привет, Гость.
Предлагаем пройти революционный курс по гитаре.
Подарок от PrimaNota.Ru, забирай!