PrimaNota.ru - самый крупный в мире бесплатный архив песенных текстов, аккордов, табулатур и нот


Kina Grannis - Stairwells Deluxe - аккорды и текст, видео

Регистрация Запомнить меня
Войти через:  Facebook Google Twitter Vk Yandex Mail.ru

Kina Grannis - Stairwells Deluxe - аккорды и текст, видео

Печатать
Просмотров: 59
Stairwells Deluxe
Kina Grannis
-----------------------------------------------------------------------------
                      STAIRWELLS REDUX - Kina Grannis
-----------------------------------------------------------------------------

This is all the chords for Kina Grannis' re-released version of Stairwells. The 
last full album tab I did for this did not include the new songs (Without
 Me etc!). Hope you enjoy! They're all fairly easy songs!

Track Listing:
1. World In Front Of Me
2. Message From Your Heart
3. Gone
4. Valentine
5. In Your Arms
6. It's Love
7. The One You Say Goodnight To
8. Stars Falling Down 
9. Heart And Mind
10. Without Me
11. Delicate
12. The Goldfish Song
13. Mr.Sun

*Bonus Disk*
14. Together
15. Strong Enough
16. Cambridge
17. Stay Just A Little
18. Back To Us

*Bonus Track*
19. Make Me


----------------------------------------------------------------------------
                      1. WORLD IN FRONT OF ME
----------------------------------------------------------------------------

Tuning: Capo 1

Chords Used:
F      x33211 (this can be played as a normal F)
Am     x02210
C      x32010
G      320010
Em     022000  

Intro:
F  Am  G x2 
G

Verse:
F                          Am      G
Hear your breath beside me in my bed
F                       Am        G
All the sheets are tangled in my legs
         F                         Am
And as I stretch the sun falls on me
          G              F
A gentle way to say it's time to wake up
      G
It's time to wake up


Chorus:
       C        Em       F
To the world in front of me
              C        Em      F
Watch as it unfolds so beautifully
                C      Em     F
Fitting all the pieces perfectly
         C        Em       F
It's the world in front of me


Verse:
F                      Am             G
Start your day with coffee, mine with tea
F                    Am        G
Humming with my guitar as you read
          F                         Am
I write a song. The words all find me
       G             F
Assembling into this picture of things
     G
With all that they bring


Chorus:
       C        Em       F
To the world in front of me
              C        Em      F
Watch as it unfolds so beautifully
                C      Em     F
Fitting all the pieces perfectly
         C        Em       F
It's the world in front of me


Bridge:
Am       G         Am           G         Am
Da da da da da da, oh, da da da da da da, oh,
         G        F
Da da da da da da oh, oh whoa.


Chorus:
       C        Em       F
To the world in front of me
              C        Em      F
Watch as it unfolds so beautifully
                C      Em     F
Fitting all the pieces perfectly
         C        Em       F
It's the world in front of me

Chorus:
       C        Em       F
To the world in front of me
              C        Em      F
Watch as it unfolds so beautifully
                C      Em     F
Fitting all the pieces perfectly
         C        Em       F
It's the world in front of me
 F                          C
It's the world in front of me

****************************************************************************
----------------------------------------------------------------------------
                       2. MESSAGE FROM YOUR HEART
----------------------------------------------------------------------------

Tuning: Capo 1

Chords Used:
C7M    x35000
Em     022000
D/F#   200230
G      230033


Intro:
   C7M                             Em
e|-----------------------------------------------------------------|
B|-------0-------0-------0-------0-------0-------0-------0-------0-|
G|---0-------0-------0-------0-------0-------0-------0-------0-----|
D|-----5-------5-------5-------5-------2-------2-------2-------2---|
A|-3-------3-------3-------3---------------------------------------|
E|---------------------------------0------0-------0-------0--------|

   C7M                             Em
e|-----------------------------------------------------------------|
B|-------0-------0-------0-------0-------0-------0-------0-------0-|
G|---0-------0-------0-------0-------0-------0-------0-------0-----|
D|-----5-------5-------5-------5-------2-------2-------2-------2---|
A|-3-------3-------3-------3---------------------------------------|
E|---------------------------------0------0-------0-------0--------|

Verse:
   C7M                             Em
e|-----------------------------------------------------------------|
B|-------0-------0-------0-------0-------0-------0-------0-------0-|
G|---0-------0-------0-------0-------0-------0-------0-------0-----|
D|-----5-------5-------5-------5-------2-------2-------2-------2---|
A|-3-------3-------3-------3---------------------------------------|
E|---------------------------------0------0-------0-------0--------|
Don't break me, I bruise easily,

   C7M                             Em
e|-----------------------------------------------------------------|
B|-------0-------0-------0-------0-------0-------0-------0-------0-|
G|---0-------0-------0-------0-------0-------0-------0-------0-----|
D|-----5-------5-------5-------5-------2-------2-------2-------2---|
A|-3-------3-------3-------3---------------------------------------|
E|---------------------------------0------0-------0-------0--------|
The source of both your love and misery,

   C7M                             Em
e|-----------------------------------------------------------------|
B|-------0-------0-------0-------0-------0-------0-------0-------0-|
G|---0-------0-------0-------0-------0-------0-------0-------0-----|
D|-----5-------5-------5-------5-------2-------2-------2-------2---|
A|-3-------3-------3-------3---------------------------------------|
E|---------------------------------0------0-------0-------0--------|
I am steady, beating endlessly,

   C7M                             Em
e|-----------------------------------------------------------------|
B|-------0-------0-------0-------0-------0-------0-------0-------0-|
G|---0-------0-------0-------0-------0-------0-------0-------0-----|
D|-----5-------5-------5-------5-------2-------2-------2-------2---|
A|-3-------3-------3-------3---------------------------------------|
E|---------------------------------0------0-------0-------0--------|
While you are dozing, dreaming pretty things.


Pre-Chorus:
   C7M                             Em     D/F#    G       D/F#
e|-----------------------------------------------------------------|
B|-------0-------0-------0-------0-------0-------3-------3-------3-|
G|---0-------0-------0-------0-------0-------2-------0-------2-----|
D|-----5-------5-------5-------5-------2-------0-------0-------0---|
A|-3-------3-------3-------3---------------------------------------|
E|---------------------------------0------2-------3-------2--------|
I don't work for free,

   C7M                             D/F#                 (strum!)
e|---------------------------------------------------------0-------|
B|-------0-------0-------0-------0-------3-------3-------3-3-------|
G|---0-------0-------0-------0-------2-------2-------2-----2-------|
D|-----5-------5-------5-------5-------0-------0-------0---0-------|
A|-3-------3-------3-------3-------------------------------0-------|
E|---------------------------------2------2-------2--------2-------|
Please take care of me.

Chorus: (strum these chords!)

G                           D/F#
This is a message from your heart
                       Em
Your most devoted body part
                       D/F#
Taking blood and making art
G                           D/F#
This is a message from your heart
                       Em
Pounding away into the dark
                         D/F#
You could thank me for a start
                            G (hold.)
This is a message from your heart.

(tap on body of guitar along with drum beat, this is how Kina plays it!)


Verse: (strum each chord once, then tap with drum beat!)

C7M                       Em
Don't hurt me, I bleed constantly
    C7M                      Em
My efforts leave me but flow back swiftly
    C7M                      Em
My rhythm, soothing, like raindrops steady
    C7M                        Em
On foggy windows when you gaze outwardly

Pre-Chorus:
   C7M                             Em     D/F#    G       D/F#
e|-----------------------------------------------------------------|
B|-------0-------0-------0-------0-------0-------3-------3-------3-|
G|---0-------0-------0-------0-------0-------2-------0-------2-----|
D|-----5-------5-------5-------5-------2-------0-------0-------0---|
A|-3-------3-------3-------3---------------------------------------|
E|---------------------------------0------2-------3-------2--------|
I don't work for free,

   C7M                             D/F#                 (strum!)
e|---------------------------------------------------------0-------|
B|-------0-------0-------0-------0-------3-------3-------3-3-------|
G|---0-------0-------0-------0-------2-------2-------2-----2-------|
D|-----5-------5-------5-------5-------0-------0-------0---0-------|
A|-3-------3-------3-------3-------------------------------0-------|
E|---------------------------------2------2-------2--------2-------|
Please take care of me.


Chorus:

G                           D/F#
This is a message from your heart
                       Em
Your most devoted body part
                       D/F#
Taking blood and making art
G                           D/F#
This is a message from your heart
                       Em
Pounding away into the dark
                         D/F#
You could thank me for a start
                            G      D/F#
This is a message from your heart.
                            Em     D/F#
This is a message from your heart.

Bridge:
               G (hold)  D/F#(hold) Em(hold) D/F#(hold)
Everytime you sleep, bum bum bum bum....
               G         D/F#       Em       D/F#
Everytime you eat, bum bum bum bum....
               G         D/F#       Em       D/F#
Everytime you laugh, bum bum bum bum....
               G         D/F#       Em       D/F#
Everytime you cry, bum bum bum bum....
               G         D/F#       Em       D/F# (hold.)
Every time you love, bum bum bum bum.... Ohh, oh


                             G(hold.)
This is a message from your heart.

****************************************************************************
-----------------------------------------------------------------------------
                         3.GONE - Kina Grannis
-----------------------------------------------------------------------------


Capo 4

Chords Used:
Em    022000
C     x32010
G     320033
D/F#  200330
Cadd9 x32033
Em7   022033

Verse:
e |------3--------3--------3--------3--------3--------3--------3--------3---|
B |----3---3----3---3----3---3----3---3----3---3----3---3----3---3----3---3-|
G |--0--------0--------5--------5--------4--------4--------2--------2-------|
D |-------------------------------------------------------------------------|
A |-------------------------------------------------------------------------|
E |-------------------------------------------------------------------------|
Stop, in the dark, where the stars are still shining on me

e |------3--------3--------3--------3--------3--------3--------3--------3---|
B |----3---3----3---3----3---3----3---3----3---3----3---3----3---3----3---3-|
G |--0--------0--------5--------5--------4--------4--------2--------2-------|
D |-------------------------------------------------------------------------|
A |-------------------------------------------------------------------------|
E |-------------------------------------------------------------------------|
go, through the wind, let it life away the memories

e |------3--------3--------3--------3--------3--------3--------3--------3---|
B |----3---3----3---3----3---3----3---3----3---3----3---3----3---3----3---3-|
G |--0--------0--------5--------5--------4--------4--------2--------2-------|
D |-------------------------------------------------------------------------|
A |-------------------------------------------------------------------------|
E |-------------------------------------------------------------------------|
I've tried to set you free, you kept trying to rescue me.

e |------3--------3--------3--------3--------3--------3--------3--------3---|
B |----3---3----3---3----3---3----3---3----3---3----3---3----3---3----3---3-|
G |--0--------0--------5--------5--------4--------4--------2--------2-------|
D |-------------------------------------------------------------------------|
A |-------------------------------------------------------------------------|
E |-------------------------------------------------------------------------|
But you can't tell heart, when to start, how to beat.

Pre-Chorus
e|------------------------------------------------------------------------------|
B|--------3--------3--------3--------3----------3--------3---------3--------3---|
G|------0---0----0---0----0---0----0---0------0---0----0---0-----2---2----2---2-|
D|------------------------------------------------------------------------------|
A|---2--------2---------3--------3----------------------------------------------|
E|------------------------------------------3--------3---------2--------2-------|
I never wanted to say goodbye, you never wanted to see me cry


e|------------------------------------------------------------------------------|
B|--------3--------3--------3--------3----------3--------3-----3----------------|
G|------0---0----0---0----0---0----0---0------0---0----0---0---2----------------|
D|------------------------------------------------------------------------------|
A|---2--------2---------3--------3----------------------------------------------|
E|------------------------------------------3--------3---------2----------------|
Now I'm afraid to open my eyes

Chorus:
       Em     C    G    D/F#
Are you, gone, gone gone?
         Em    C      G      D/F#
Tell me Im wrong, wrong wrong
           Em    C      G     D/F#
It's been so long, long, long
       Em    C    G     D/F#
Are you gone, gone gone?



Verse:

G            Cadd9               Em7             D/F#
Back, at the start - we were the only thing that mattered
      G           Cadd9        Em7                   D/F#
and we smiled, unafraid, as we filled the night with laughter
      G                Cadd9        Em7                D/F#
and i tried my best to see what you tried your best to be
        G          Cadd9          Em7             D/F#
but you cant tell a heart when to start, how to beat


Pre-Chorus:

Em7               Cadd9
I never wanted to say goodbye
G                   D/F#
you never wanted to see me cry
Em7               Cadd9     G       D/F#
now Im afraid to open my eyes.


Chorus:
       Em     C    G    D/F#
Are you, gone, gone gone?
         Em    C      G      D/F#
Tell me Im wrong, wrong wrong
           Em    C      G     D/F#
It's been so long, long, long
       Em    C    G     D/F#
Are you gone, gone gone?


Bridge:
           Am         C
Though it seems that we
         G       D/F#
Are not meant to be
          Am     C
I have to disagree
            G        D/F#
You are the one for me
      Am        C
And i know someday
         G        D/F#
we could find our way
           Am         C
I hope its not too late
         G    D/F#
please stay


Chorus: *pick this bit*
        Em     C      G   D/F#
Are you, gone... gone   Gone?
        Em   C    G     D/F#
Are you gone, gone gone?
           Em   C     G      D/F#
Its been so long, long long long
             Em  C G D/F#
its been so long.


Chorus: Strum lightly for line 1 and 2 and normally from then on
       Em     C    G    D/F#
Are you, gone, gone gone?
         Em    C      G      D/F#
Tell me Im wrong, wrong wrong
           Em    C      G     D/F#
It's been so long, long, long
       Em    C    G     D/F#
Are you gone, gone gone?

Em C G D/F# til end

*****************************************************************************
----------------------------------------------------------------------------
                          4. VALENTINE
----------------------------------------------------------------------------

Tuning: Standard

Chords Used:

A    x02220
E    022100
F#m  244222
D    xx0232


Verse:
     A                          E
e|-----------------------------------------------------------|
B|------2---2----------2--2----------0--0----------0--0------|
G|------2------2-------2-----2-------1-----1-------1-----1---|
D|------2--------------2-------------2-------------2---------|
A|---0------0-----0-0-----0----------------------------------|
E|------------------------------0-0-----0-----0-0-----0------|
Love, it's a special day.

   F#m                          D
e|-----------------------------------2--2----------2--2------|
B|------2--2----------2--2-----------3-----3-------3-----3---|
G|------2-----2-------2-----2--------2-------------2---------|
D|------4-------------4---------0-0-----0-----0-0-----0------|
A|-----------------------------------------------------------|
E|-2-2-----2-----2-2-----2-----------------------------------|
We should celebrate, and appreciate.

Pre Chorus:
    A             E             F#m           D
e|-------------------------------------------------2--2------|
B|-------2--2----------0--0----------2--2----------3-----3---|
G|-------2-----2-------1-----1-------2-----2-------2---------|
D|-------2-------------2-------------4--------0-0-----0------|
A|--0-0-----0------------------------------------------------|
E|----------------0-0-----0-----2-2-----2--------------------|
That you and me found something pretty neat,

    A             E             F#m           D
e|-------------------------------------------------------2---|
B|-------2--2----------0--0----------2--2-------------3------|
G|-------2-----2-------1-----1-------2-----2-------2---------|
D|-------2-------------2-------------4--------0-0------------|
A|--0-0-----0------------------------------------------------|
E|----------------0-0-----0-----2-2-----2--------------------|
and I know some say this day is arbitrary.

Chorus:
    A             E             F#m           D
e|-------------------------------------------------2--2------|
B|-------2--2----------0--0----------2--2----------3-----3---|
G|-------2-----2-------1-----1-------2-----2-------2---------|
D|-------2-------------2-------------4--------0-0-----0------|
A|--0-0-----0------------------------------------------------|
E|----------------0-0-----0-----2-2-----2--------------------|
But it's a good excuse, put our love to use, Baby I know what to do, Baby I,

    A             E             F#m           D
e|-------------------------------------------------2--2------|
B|-------2--2----------0--0----------2--2----------3-----3---|
G|-------2-----2-------1-----1-------2-----2-------2---------|
D|-------2-------------2-------------4--------0-0-----0------|
A|--0-0-----0------------------------------------------------|
E|----------------0-0-----0-----2-2-----2--------------------|
I will love you, I'll love you, I'll love you.

Verse:
     A                          E
e|-----------------------------------------------------------|
B|------2---2----------2--2----------0--0----------0--0------|
G|------2------2-------2-----2-------1-----1-------1-----1---|
D|------2--------------2-------------2-------------2---------|
A|---0------0-----0-0-----0----------------------------------|
E|------------------------------0-0-----0-----0-0-----0------|
Love, I don't need those things,

   F#m                          D
e|-----------------------------------2--2----------2--2------|
B|------2--2----------2--2-----------3-----3-------3-----3---|
G|------2-----2-------2-----2--------2-------------2---------|
D|------4-------------4---------0-0-----0-----0-0-----0------|
A|-----------------------------------------------------------|
E|-2-2-----2-----2-2-----2-----------------------------------|
I don't need anything.

Pre Chorus:
    A             E             F#m           D
e|-------------------------------------------------2--2------|
B|-------2--2----------0--0----------2--2----------3-----3---|
G|-------2-----2-------1-----1-------2-----2-------2---------|
D|-------2-------------2-------------4--------0-0-----0------|
A|--0-0-----0------------------------------------------------|
E|----------------0-0-----0-----2-2-----2--------------------|
But you with me, 'cause in your company,

    A             E             F#m           D
e|-------------------------------------------------------2---|
B|-------2--2----------0--0----------2--2-------------3------|
G|-------2-----2-------1-----1-------2-----2-------2---------|
D|-------2-------------2-------------4--------0-0------------|
A|--0-0-----0------------------------------------------------|
E|----------------0-0-----0-----2-2-----2--------------------|
I feel happy, oh so happy and complete.

Chorus:
    A             E             F#m           D
e|-------------------------------------------------2--2------|
B|-------2--2----------0--0----------2--2----------3-----3---|
G|-------2-----2-------1-----1-------2-----2-------2---------|
D|-------2-------------2-------------4--------0-0-----0------|
A|--0-0-----0------------------------------------------------|
E|----------------0-0-----0-----2-2-----2--------------------|
And it's a good excuse, put our love to use, Baby I know what to do, Baby I,

    A             E             F#m           D
e|-------------------------------------------------2--2------|
B|-------2--2----------0--0----------2--2----------3-----3---|
G|-------2-----2-------1-----1-------2-----2-------2---------|
D|-------2-------------2-------------4--------0-0-----0------|
A|--0-0-----0------------------------------------------------|
E|----------------0-0-----0-----2-2-----2--------------------|
I will love you, I'll love you, I'll love you.

    A             E             F#m           D
e|-------------------------------------------------2--2------|
B|-------2--2----------0--0----------2--2----------3-----3---|
G|-------2-----2-------1-----1-------2-----2-------2---------|
D|-------2-------------2-------------4--------0-0-----0------|
A|--0-0-----0------------------------------------------------|
E|----------------0-0-----0-----2-2-----2--------------------|
Yeah, it's a good excuse, put our love to use, Baby I know what to do, Baby
 I,

    A             E             F#m           D
e|-------------------------------------------------2--2------|
B|-------2--2----------0--0----------2--2----------3-----3---|
G|-------2-----2-------1-----1-------2-----2-------2---------|
D|-------2-------------2-------------4--------0-0-----0------|
A|--0-0-----0------------------------------------------------|
E|----------------0-0-----0-----2-2-----2--------------------|
I will love you, I'll love you, I'll love you.

Bridge:
    A             E             F#m           D
e|-------------------------------------------------2--2------|
B|-------2--2----------0--0----------2--2----------3-----3---|
G|-------2-----2-------1-----1-------2-----2-------2---------|
D|-------2-------------2-------------4--------0-0-----0------|
A|--0-0-----0------------------------------------------------|
E|----------------0-0-----0-----2-2-----2--------------------|
So won't you be my honeybee, giving me sweet kisses all the time,

    A             E             F#m           D
e|-------------------------------------------------2--2------|
B|-------2--2----------0--0----------2--2----------3-----3---|
G|-------2-----2-------1-----1-------2-----2-------2---------|
D|-------2-------------2-------------4--------0-0-----0------|
A|--0-0-----0------------------------------------------------|
E|----------------0-0-----0-----2-2-----2--------------------|
Be mine, be my valentine.

    A             E             F#m           D
e|-------------------------------------------------2--2------|
B|-------2--2----------0--0----------2--2----------3-----3---|
G|-------2-----2-------1-----1-------2-----2-------2---------|
D|-------2-------------2-------------4--------0-0-----0------|
A|--0-0-----0------------------------------------------------|
E|----------------0-0-----0-----2-2-----2--------------------|
So won't you be my honeybee, giving me sweet kisses all the time,

    A             E             F#m          (F#m)
e|-----------------------------------------------------------|
B|-------2--2----------0--0----------2--2----------2--2------|
G|-------2-----2-------1-----1-------2-----2-------2-----2---|
D|-------2-------------2-------------4-------------4---------|
A|--0-0-----0------------------------------------------------|
E|----------------0-0-----0-----2-2-----2-----2-2-----2------|
Be mine, be my valentine.

Outro:
    D             E          A
e|-------------------------------------------|
B|----------------0----0-----------2---------|
G|--0-0-----0--------------------2---2---2---|
D|-------2---------------------2-------2-----|
A|-------3-----3-------------0-------------0-|
E|-------2--2-----0----0---------------------|
Oh, be my valentine

****************************************************************************
----------------------------------------------------------------------------
                          5. IN YOUR ARMS - Kina Grannis
----------------------------------------------------------------------------

Tuning: Standard

Chords Used:
C      x32010
Am     x02210
F      133211
G      320033   

Intro:
   C                               Am
e|-----------------------------------------------------------------|
B|-----------------------------------------------------------------|
G|-----0-------0-------0-------0-------2-------2-------2-------2---|
D|---2---2---2---2---2---2---2---2---2---2---2---2---2---2---2---2-|
A|-3-------3-------3-------3-------0-------0-------0-------0-------|
E|-----------------------------------------------------------------|


Verse:
   C                               Am
e|-----------------------------------------------------------------|
B|-----------------------------------------------------------------|
G|-----0-------0-------0-------0-------2-------2-------2-------2---|
D|---2---2---2---2---2---2---2---2---2---2---2---2---2---2---2---2-|
A|-3-------3-------3-------3-------0-------0-------0-------0-------|
E|-----------------------------------------------------------------|
Hush, now let's go quiet to the park, where it first started.

   C                               Am
e|-----------------------------------------------------------------|
B|-----------------------------------------------------------------|
G|-----0-------0-------0-------0-------2-------2-------2-------2---|
D|---2---2---2---2---2---2---2---2---2---2---2---2---2---2---2---2-|
A|-3-------3-------3-------3-------0-------0-------0-------0-------|
E|-----------------------------------------------------------------|
Cold night, us lying in the dark. I felt my heart was,

   F                               G              (Strum)
e|-------------------------------------------------3---------------|
B|-------------------------------------------------3---------------|
G|-----2-------2-------2-------2-------0-------0---0---------------|
D|---3---3---3---3---3---3---3---3---0---0---0---0-0---------------|
A|-3-------3-------3-------3-------2-------2-------2---------------|
E|-------------------------------------------------3---------------|
Trying to find a place for you to stay, a place where I'd feel safe.

Chorus: (strum)
   C                               G
e|-0-------------------------------3-------------------------------|
B|-1-------------------------------3-------------------------------|
G|-0-------------------------------0-------------------------------|
D|-2-------------------------------0-------------------------------|
A|-3-------------------------------2-------------------------------|
E|-x-------------------------------3-------------------------------|
Anything we have known, anything we've forgotten.

   Am                              F
e|-0-------------------------------1-------------------------------|
B|-1-------------------------------1-------------------------------|
G|-2-------------------------------2-------------------------------|
D|-2-------------------------------3-------------------------------|
A|-0-------------------------------3-------------------------------|
E|-x-------------------------------1-------------------------------|
In the rain, in the dark we'll lay, in your arms, in your arms I'll

   C                               G
e|-0-------------------------------3-------------------------------|
B|-1-------------------------------3-------------------------------|
G|-0-------------------------------0-------------------------------|
D|-2-------------------------------0-------------------------------|
A|-3-------------------------------2-------------------------------|
E|-x-------------------------------3-------------------------------|
stay. Anything we have known, anything we've forgotten.

   Am                              F
e|-0-------------------------------1-------------------------------|
B|-1-------------------------------1-------------------------------|
G|-2-------------------------------2-------------------------------|
D|-2-------------------------------3-------------------------------|
A|-0-------------------------------3-------------------------------|
E|-x-------------------------------1-------------------------------|
In the rain, in the dark we'll lay, in your arms, in your arms I'll

   C                               Am
e|-----------------------------------------------------------------|
B|-----------------------------------------------------------------|
G|-----0-------0-------0-------0-------2-------2-------2-------2---|
D|---2---2---2---2---2---2---2---2---2---2---2---2---2---2---2---2-|
A|-3-------3-------3-------3-------0-------0-------0-------0-------|
E|-----------------------------------------------------------------|
stay.

Verse:
   C                               Am
e|-----------------------------------------------------------------|
B|-----------------------------------------------------------------|
G|-----0-------0-------0-------0-------2-------2-------2-------2---|
D|---2---2---2---2---2---2---2---2---2---2---2---2---2---2---2---2-|
A|-3-------3-------3-------3-------0-------0-------0-------0-------|
E|-----------------------------------------------------------------|
Take my hand, let's go in to the trees.

   C                               Am
e|-----------------------------------------------------------------|
B|-----------------------------------------------------------------|
G|-----0-------0-------0-------0-------2-------2-------2-------2---|
D|---2---2---2---2---2---2---2---2---2---2---2---2---2---2---2---2-|
A|-3-------3-------3-------3-------0-------0-------0-------0-------|
E|-----------------------------------------------------------------|
Behind the branches, falling on our knees.

   F                               G              (Strum)
e|-------------------------------------------------3---------------|
B|-------------------------------------------------3---------------|
G|-----2-------2-------2-------2-------0-------0---0---------------|
D|---3---3---3---3---3---3---3---3---0---0---0---0-0---------------|
A|-3-------3-------3-------3-------2-------2-------2---------------|
E|-------------------------------------------------3---------------|
I remember feeling like this part of us would never change.

Chorus: (strum)
   C                               G
e|-0-------------------------------3-------------------------------|
B|-1-------------------------------3-------------------------------|
G|-0-------------------------------0-------------------------------|
D|-2-------------------------------0-------------------------------|
A|-3-------------------------------2-------------------------------|
E|-x-------------------------------3-------------------------------|
Anything we have known, anything we've forgotten.

   Am                              F
e|-0-------------------------------1-------------------------------|
B|-1-------------------------------1-------------------------------|
G|-2-------------------------------2-------------------------------|
D|-2-------------------------------3-------------------------------|
A|-0-------------------------------3-------------------------------|
E|-x-------------------------------1-------------------------------|
In the rain, in the dark we'll lay, in your arms, in your arms I'll

   C                               G
e|-0-------------------------------3-------------------------------|
B|-1-------------------------------3-------------------------------|
G|-0-------------------------------0-------------------------------|
D|-2-------------------------------0-------------------------------|
A|-3-------------------------------2-------------------------------|
E|-x-------------------------------3-------------------------------|
stay. Anything we have known, anything we've forgotten.

   Am                              F
e|-0-------------------------------1-------------------------------|
B|-1-------------------------------1-------------------------------|
G|-2-------------------------------2-------------------------------|
D|-2-------------------------------3-------------------------------|
A|-0-------------------------------3-------------------------------|
E|-x-------------------------------1-------------------------------|
In the rain, in the dark we'll lay, in your arms, in your arms I'll stay.


Bridge: (strum)
   Am                              F
e|-0-------------------------------1-------------------------------|
B|-1-------------------------------1-------------------------------|
G|-2-------------------------------2-------------------------------|
D|-2-------------------------------3-------------------------------|
A|-0-------------------------------3-------------------------------|
E|-x-------------------------------1-------------------------------|
Follow me we both know the way.

   Am                              G (strum once and hold)
e|-0-------------------------------3-------------------------------|
B|-1-------------------------------3-------------------------------|
G|-2-------------------------------0-------------------------------|
D|-2-------------------------------0-------------------------------|
A|-0-------------------------------2-------------------------------|
E|-x-------------------------------3-------------------------------|
It's always been the same.


Chorus:
   C                              G              
e|-----------------------------------------------------------------|
B|-----------------------------------------------------------------|
G|-----0-------0-------0-------0-------0-------0-------0-------0---|
D|---2---2---2---2---2---2---2---2---0---0---0---0---0---0---0---0-|
A|-3-------3-------3-------3-------2-------2-------2-------2-------|
E|-----------------------------------------------------------------|
Anything we have known, anything we've forgotten.

   Am                              F
e|-0-------------------------------1-------------------------------|
B|-1-------------------------------1-------------------------------|
G|-2-------------------------------2-------------------------------|
D|-2-------------------------------3-------------------------------|
A|-0-------------------------------3-------------------------------|
E|-x-------------------------------1-------------------------------|
In the rain, in the dark we'll lay, in your arms, in your arms I'll


   C                               G
e|-0-------------------------------3-------------------------------|
B|-1-------------------------------3-------------------------------|
G|-0-------------------------------0-------------------------------|
D|-2-------------------------------0-------------------------------|
A|-3-------------------------------2-------------------------------|
E|-x-------------------------------3-------------------------------|
stay. Anything we have known, anything we've forgotten.

   Am                              F
e|-0-------------------------------1-------------------------------|
B|-1-------------------------------1-------------------------------|
G|-2-------------------------------2-------------------------------|
D|-2-------------------------------3-------------------------------|
A|-0-------------------------------3-------------------------------|
E|-x-------------------------------1-------------------------------|
In the rain, in the dark we'll lay, in your arms, in your arms I'll stay.


Outro: (strum)
   C                               G
e|-0-------------------------------3-------------------------------|
B|-1-------------------------------3-------------------------------|
G|-0-------------------------------0-------------------------------|
D|-2-------------------------------0-------------------------------|
A|-3-------------------------------2-------------------------------|
E|-x-------------------------------3-------------------------------|
In your arms I'll stay. In your arms I'll

   Am                              F
e|-0-------------------------------1-------------------------------|
B|-1-------------------------------1-------------------------------|
G|-2-------------------------------2-------------------------------|
D|-2-------------------------------3-------------------------------|
A|-0-------------------------------3-------------------------------|
E|-x-------------------------------1-------------------------------|
stay. In your arms I'll stay. In your arms I'll

   C   (hold)                            
e|-0--------------------------------|
B|-1--------------------------------|
G|-0--------------------------------|
D|-2--------------------------------|
A|-3--------------------------------|
E|-x--------------------------------|
stay.

*****************************************************************************
---------------------------------------------------------------------------
                       6. ITS LOVE - Kina Grannis
---------------------------------------------------------------------------

Chords used:
G       300033
Cadd9   x30033
G/B     x20033
D/F#    200023
C       x32010  (The slide up just goes two frets up, x54020 I'll call it D)
D       xx0232

Intro: G Cadd9 G/B D/F#

Verse:
G             Cadd9          G/B         D/F#
 Yeah I wanna know where you go if youre going
G                     Cadd9            G/B               D/F#
 and we could take it slow if you dont show that youre slowing
 G                    Cadd9  G/B         D/F#
 and you could try to save me if youre crazy 
G            Cadd9      G/B            D/F#
 but i wanna know if we go where were goin to 

G Cadd9 G/B D/F#

Verse:
G              Cadd9        G/B              D/F#
 people try to find reasons why things arent perfect 
G         Cadd9      G/B           D/F#
 but do deny every smile theyre deserving 
G          Cadd9           G/B           D/F#
 but we can try to end this just give me one kiss 
G                Cadd9    G/B            D/F#
 let me show you how even now things are pefect 

Pre-Chorus:
C                 --> D
 if you wanna grow you gotta let it go

Chorus:
G  D  Cadd9
 yooouuuu afraid fall
G  D  Cadd9
 yooouuuu know its all
G  D  Cadd9
 yooouuuu afraid to fall
G  D  Cadd9               G  D  Cadd9
 yooouuuu know its all love
   G  D  Cadd9
 looove

Verse:
G                  Cadd9        G/B           D/F#
 I know that youre scared to pepare for this feeling 
G                Cadd9         G/B              D/F#
 but its always there like the air that youre breathing
G                Cadd9           G/B           D/F#
 so go on take a deep breath and give me your best
 G            Cadd9         G/B                  D/F#
 maybe youll see through to me and your feelings too

Pre-Chorus:
C                 --> D
 if you wanna grow you gotta let it go

Chorus:
G  D  Cadd9
 yooouuuu afraid fall
G  D  Cadd9
 yooouuuu know its all
G  D  Cadd9
 yooouuuu afraid to fall
G  D  Cadd9               G  D  Cadd9
 yooouuuu know its all love
   G  D  Cadd9
 looove

Bridge:
D      C                D
 if you open up your hand 
C                D
 dont try to hard 
           C             D
 you dont need to understand 
   C
 just are

Chorus:
G  D  Cadd9
 yooouuuu afraid fall
G  D  Cadd9
 yooouuuu know its all
G  D  Cadd9
 yooouuuu afraid to fall
G  D  Cadd9               G  D  Cadd9
 yooouuuu know its all love
   G  D  Cadd9
 looove
G  D  Cadd9
 looove
G  D  Cadd9
 looove


G Cadd9 G/B D/F# Repeat til end...

*****************************************************************************

-----------------------------------------------------------------------------
             7. THE ONE YOU SAY GOODNIGHT TO - Kina Grannis
-----------------------------------------------------------------------------

Capo 2

Chords Used:
F     133211
Bb    x13331
Dm    x57765
C     x32010
Am    x02210

Tab: (this is the bass line that plays in the chorus, relative to capo.)

E|-1-1-1-1-0-1-6-5-3-| x2

Chorus:
F                             F            
I will be the one you say goodnight to
F                             F           
I will be the one you say goodnight to


Verse 1:
             F                  Bb
Let me first say that you're so charming
          Dm                   C              F
Don't you think that you could use someone to charm
           Bb                         Dm         C
I will sit back I will laugh, I will laugh again oh, oh!
                F               Bb
And maybe you'd like someone to greet you
       Dm           C
At the door after a long, long day
    F            Bb      C
I'm here for you, if you let me!


Chorus:
F                             F            
I will be the one you say goodnight to
F                             F           
I will be the one you say goodnight to


Verse 2:
            F              Bb
Funny thing is, I'm trying hard
             Dm             C               F
And it's not like me to get so caught up in things
            Bb                         Dm          C
But I won't quit I won't quit 'til you smile at me oh, oh!
           F                Bb             Dm
And I just cry if you don't stop to say hello
             C
It hurts the longer this goes
    F           Bb      C
I'd cry for you, if you let me!


Chorus:
F                             F            
I will be the one you say goodnight to
F                             F           
I will be the one you say goodnight to
 

Bridge:
Dm C  Am Bb
Oh oh oh if you let me
Dm C  Am Bb
Oh oh oh if you let me
Dm C  Am Bb
Oh oh oh if you let me
Dm      C       Am     Bb
O-oo-o, O-oo-o, O-oo-o 



Chorus:
F                             F            
I will be the one you say goodnight to
F                             F           
I will be the one you say goodnight to
F                             F            
I will be the one you say goodnight to
F                             F           
I will be the one you say goodnight to

****************************************************************************
----------------------------------------------------------------------------
                      8. Stars Falling Down - Kina Grannis 
----------------------------------------------------------------------------

NOTE. This is an easy way to play it, you can sub in C for A, G for E and F
 for D/F# with no capo if you prefer.

Tuning: Capo 3

Chords Used:
A    x02220
E    022100
D/F# 200232

Intro: A E D/F#
A                E                      D/F#
I think that the stars would have waited for us
A                 E                    D/F#
hanging on to the night, watching down below
A                     E                     D/#
Until we were hand in hand, together waiting for them
A                  E              D/F#
And when I open my eyes I saw it too
         
Stars falling down, and I fell for you

Chorus:
A           E           D/F#
I love you, I love you
A           E           D/F#
I love you, I love you. I do.

A  E D/F#

Verse:
A                E                       D/F#
I think that the clouds like the laughter around us
A                   E                             D/F#
Wanting to feel the warmth they're softly sinking down
A                    E                          D/F#
Until they cover the streets just like a dreamland
A                       E                      D/F#
And right above us they part so that I see through

Stars falling down, and I fell for you.

Chorus:
A           E           D/F#
I love you, I love you
A           E           D/F#
I love you, I love you. I do.
A  E D/F# (repeat til end!)
I do, i do...

****************************************************************************
----------------------------------------------------------------------------
		         9. HEART AND MIND - Kina Grannis
----------------------------------------------------------------------------

Tuning: Capo 6

Chords Used:
D         xx0232
G/B       x20033
Cadd9     x23033
Am7       x02010
C/B       x20010
C         x32010
G         320033
Dsus4/F#  200333
Em7       022033

Intro:
   D                           G/B             Cadd9      
e|-------2-------2-------2p0-------------------------------------------|
B|---3-------3-------3-------3-------3-------3-------3-------3-------3-|
G|-----2-------2-------2---------0-------0-------0-------0-------0-----|
D|-0-------0-------0---------------0-------0-------0-------0-------0---|
A|-----------------------------2-------2-------3-------3-------3-------|
E|---------------------------------------------------------------------|

Verse:
   D                           G/B             Cadd9      
e|-------2-------2-------2p0-------------------------------------------|
B|---3-------3-------3-------3-------3-------3-------3-------3-------3-|
G|-----2-------2-------2---------0-------0-------0-------0-------0-----|
D|-0-------0-------0---------------0-------0-------0-------0-------0---|
A|-----------------------------2-------2-------3-------3-------3-------|
E|---------------------------------------------------------------------|
I write you letters from right to left,

   D                           G/B             Cadd9      
e|-------2-------2-------2p0-------------------------------------------|
B|---3-------3-------3-------3-------3-------3-------3-------3-------3-|
G|-----2-------2-------2---------0-------0-------0-------0-------0-----|
D|-0-------0-------0---------------0-------0-------0-------0-------0---|
A|-----------------------------2-------2-------3-------3-------3-------|
E|---------------------------------------------------------------------|
To see if you have desire yet,

   D                           G/B             Cadd9      
e|-------2-------2-------2p0-------------------------------------------|
B|---3-------3-------3-------3-------3-------3-------3-------3-------3-|
G|-----2-------2-------2---------0-------0-------0-------0-------0-----|
D|-0-------0-------0---------------0-------0-------0-------0-------0---|
A|-----------------------------2-------2-------3-------3-------3-------|
E|---------------------------------------------------------------------|
To decipher what I said,

   D                           G/B             Cadd9      
e|-------2-------2-------2p0-------------------------------------------|
B|---3-------3-------3-------3-------3-------3-------3-------3-------3-|
G|-----2-------2-------2---------0-------0-------0-------0-------0-----|
D|-0-------0-------0---------------0-------0-------0-------0-------0---|
A|-----------------------------2-------2-------3-------3-------3-------|
E|---------------------------------------------------------------------|
And learn secrets from my head,

   D                           G/B             Cadd9      
e|-------2-------2-------2p0-------------------------------------------|
B|---3-------3-------3-------3-------3-------3-------3-------3-------3-|
G|-----2-------2-------2---------0-------0-------0-------0-------0-----|
D|-0-------0-------0---------------0-------0-------0-------0-------0---|
A|-----------------------------2-------2-------3-------3-------3-------|
E|---------------------------------------------------------------------|

Verse 2:
   D                           G/B             Cadd9      
e|-------2-------2-------2p0-------------------------------------------|
B|---3-------3-------3-------3-------3-------3-------3-------3-------3-|
G|-----2-------2-------2---------0-------0-------0-------0-------0-----|
D|-0-------0-------0---------------0-------0-------0-------0-------0---|
A|-----------------------------2-------2-------3-------3-------3-------|
E|---------------------------------------------------------------------|
It was hard for me to say,

   D                           G/B             Cadd9      
e|-------2-------2-------2p0-------------------------------------------|
B|---3-------3-------3-------3-------3-------3-------3-------3-------3-|
G|-----2-------2-------2---------0-------0-------0-------0-------0-----|
D|-0-------0-------0---------------0-------0-------0-------0-------0---|
A|-----------------------------2-------2-------3-------3-------3-------|
E|---------------------------------------------------------------------|
those three words that are so brave,

   D                           G/B             Cadd9      
e|-------2-------2-------2p0-------------------------------------------|
B|---3-------3-------3-------3-------3-------3-------3-------3-------3-|
G|-----2-------2-------2---------0-------0-------0-------0-------0-----|
D|-0-------0-------0---------------0-------0-------0-------0-------0---|
A|-----------------------------2-------2-------3-------3-------3-------|
E|---------------------------------------------------------------------|
I almost kept them locked away,

   D                           G/B             Cadd9      
e|-------2-------2-------2p0-------------------------------------------|
B|---3-------3-------3-------3-------3-------3-------3-------3-------3-|
G|-----2-------2-------2---------0-------0-------0-------0-------0-----|
D|-0-------0-------0---------------0-------0-------0-------0-------0---|
A|-----------------------------2-------2-------3-------3-------3-------|
E|---------------------------------------------------------------------|
deep inside where they'd be safe.

   D                           G/B             Cadd9      
e|-------2-------2-------2p0-------------------------------------------|
B|---3-------3-------3-------3-------3-------3-------3-------3-------3-|
G|-----2-------2-------2---------0-------0-------0-------0-------0-----|
D|-0-------0-------0---------------0-------0-------0-------0-------0---|
A|-----------------------------2-------2-------3-------3-------3-------|
E|---------------------------------------------------------------------|

Pre-Chorus:
   Am7             C/B             C               C/B     
e|-----------------------------------------------------------------|
B|-------1-------1-------1-------1-------1-------1-------1-------1-|
G|---0-------0-------0-------0-------0-------0-------0-------0-----|
D|-----2-------2-------0-------0-------2-------2-------2-------0---|
A|-0-------0-------2-------2-------3-------3-------3-------2-------|
E|-----------------------------------------------------------------|
Always tryin to find

   Am7             C/B             C               C/B     
e|-----------------------------------------------------------------|
B|-------1-------1-------1-------1-------1-------1-------1-------1-|
G|---0-------0-------0-------0-------0-------0-------0-------0-----|
D|-----2-------2-------0-------0-------2-------2-------2-------0---|
A|-0-------0-------2-------2-------3-------3-------3-------2-------|
E|-----------------------------------------------------------------|
A safer place to hide.

Chorus:
   G                               Dsus4/F#
e|-----------------------------------------------------------------|
B|-------3-------3-------3-------3-------3-------3-------3-------3-|
G|---0-------0-------0-------0-------2-------2-------2-------2-----|
D|------0------0-------0-------0-------0-------0-------0-------0---|
A|-----------------------------------------------------------------|
E|-3-------3-------3-------3-------2-------2-------2-------2-------|
Always felt I was protecting my

   Em7                             Cadd9
e|-----------------------------------------------------------------|
B|-------3-------3-------3-------3-------3-------3-------3-------3-|
G|---0-------0-------0-------0-------0-------0-------0-------0-----|
D|-----0-------0-------0-------0-------2-------2-------2-------2---|
A|---------------------------------3-------3-------3-------3-------|
E|-0-------0-------0-------0---------------------------------------|
Heart and mind, heart and mind

   G                               Dsus4/F#
e|-----------------------------------------------------------------|
B|-------3-------3-------3-------3-------3-------3-------3-------3-|
G|---0-------0-------0-------0-------2-------2-------2-------2-----|
D|------0------0-------0-------0-------0-------0-------0-------0---|
A|-----------------------------------------------------------------|
E|-3-------3-------3-------3-------2-------2-------2-------2-------|
but it seems like, to really feel alive

   Em7                             Cadd9
e|-----------------------------------------------------------------|
B|-------3-------3-------3-------3-------3-------3-------3-------3-|
G|---0-------0-------0-------0-------0-------0-------0-------0-----|
D|-----0-------0-------0-------0-------2-------2-------2-------2---|
A|---------------------------------3-------3-------3-------3-------|
E|-0-------0-------0-------0---------------------------------------|
I cannot hide my heart and mind.

   G                               Dsus4/F#
e|-----------------------------------------------------------------|
B|-------3-------3-------3-------3-------3-------3-------3-------3-|
G|---0-------0-------0-------0-------2-------2-------2-------2-----|
D|------0------0-------0-------0-------0-------0-------0-------0---|
A|-----------------------------------------------------------------|
E|-3-------3-------3-------3-------2-------2-------2-------2-------|

   Em7                             Cadd9
e|-----------------------------------------------------------------|
B|-------3-------3-------3-------3-------3-------3-------3-------3-|
G|---0-------0-------0-------0-------0-------0-------0-------0-----|
D|-----0-------0-------0-------0-------2-------2-------2-------2---|
A|---------------------------------3-------3-------3-------3-------|
E|-0-------0-------0-------0---------------------------------------|

Verse:
   D                           G/B             Cadd9      
e|-------2-------2-------2p0-------------------------------------------|
B|---3-------3-------3-------3-------3-------3-------3-------3-------3-|
G|-----2-------2-------2---------0-------0-------0-------0-------0-----|
D|-0-------0-------0---------------0-------0-------0-------0-------0---|
A|-----------------------------2-------2-------3-------3-------3-------|
E|---------------------------------------------------------------------|
And I don't why I get shy

   D                           G/B             Cadd9      
e|-------2-------2-------2p0-------------------------------------------|
B|---3-------3-------3-------3-------3-------3-------3-------3-------3-|
G|-----2-------2-------2---------0-------0-------0-------0-------0-----|
D|-0-------0-------0---------------0-------0-------0-------0-------0---|
A|-----------------------------2-------2-------3-------3-------3-------|
E|---------------------------------------------------------------------|
Tucked away inside my mind

   D                           G/B             Cadd9      
e|-------2-------2-------2p0-------------------------------------------|
B|---3-------3-------3-------3-------3-------3-------3-------3-------3-|
G|-----2-------2-------2---------0-------0-------0-------0-------0-----|
D|-0-------0-------0---------------0-------0-------0-------0-------0---|
A|-----------------------------2-------2-------3-------3-------3-------|
E|---------------------------------------------------------------------|
scared to let someone inside

   D                           G/B             Cadd9      
e|-------2-------2-------2p0-------------------------------------------|
B|---3-------3-------3-------3-------3-------3-------3-------3-------3-|
G|-----2-------2-------2---------0-------0-------0-------0-------0-----|
D|-0-------0-------0---------------0-------0-------0-------0-------0---|
A|-----------------------------2-------2-------3-------3-------3-------|
E|---------------------------------------------------------------------|
I sit silent in disguise

   D                           G/B             Cadd9      
e|-------2-------2-------2p0-------------------------------------------|
B|---3-------3-------3-------3-------3-------3-------3-------3-------3-|
G|-----2-------2-------2---------0-------0-------0-------0-------0-----|
D|-0-------0-------0---------------0-------0-------0-------0-------0---|
A|-----------------------------2-------2-------3-------3-------3-------|
E|---------------------------------------------------------------------|

Pre-Chorus:
   Am7             C/B             C               C/B     
e|-----------------------------------------------------------------|
B|-------1-------1-------1-------1-------1-------1-------1-------1-|
G|---0-------0-------0-------0-------0-------0-------0-------0-----|
D|-----2-------2-------0-------0-------2-------2-------2-------0---|
A|-0-------0-------2-------2-------3-------3-------3-------2-------|
E|-----------------------------------------------------------------|
Always tryin to find

   Am7             C/B             C               C/B     
e|-----------------------------------------------------------------|
B|-------1-------1-------1-------1-------1-------1-------1-------1-|
G|---0-------0-------0-------0-------0-------0-------0-------0-----|
D|-----2-------2-------0-------0-------2-------2-------2-------0---|
A|-0-------0-------2-------2-------3-------3-------3-------2-------|
E|-----------------------------------------------------------------|
A safer place to hide.

Chorus:
   G                               Dsus4/F#
e|-----------------------------------------------------------------|
B|-------3-------3-------3-------3-------3-------3-------3-------3-|
G|---0-------0-------0-------0-------2-------2-------2-------2-----|
D|------0------0-------0-------0-------0-------0-------0-------0---|
A|-----------------------------------------------------------------|
E|-3-------3-------3-------3-------2-------2-------2-------2-------|
Always felt I was protecting my

   Em7                             Cadd9
e|-----------------------------------------------------------------|
B|-------3-------3-------3-------3-------3-------3-------3-------3-|
G|---0-------0-------0-------0-------0-------0-------0-------0-----|
D|-----0-------0-------0-------0-------2-------2-------2-------2---|
A|---------------------------------3-------3-------3-------3-------|
E|-0-------0-------0-------0---------------------------------------|
Heart and mind, heart and mind

   G                               Dsus4/F#
e|-----------------------------------------------------------------|
B|-------3-------3-------3-------3-------3-------3-------3-------3-|
G|---0-------0-------0-------0-------2-------2-------2-------2-----|
D|------0------0-------0-------0-------0-------0-------0-------0---|
A|-----------------------------------------------------------------|
E|-3-------3-------3-------3-------2-------2-------2-------2-------|
but it seems like, to really feel alive

   Em7                             Cadd9
e|-----------------------------------------------------------------|
B|-------3-------3-------3-------3-------3-------3-------3-------3-|
G|---0-------0-------0-------0-------0-------0-------0-------0-----|
D|-----0-------0-------0-------0-------2-------2-------2-------2---|
A|---------------------------------3-------3-------3-------3-------|
E|-0-------0-------0-------0---------------------------------------|
I cannot hide my heart and mind.

    G                               Dsus4/F#
e|-----------------------------------------------------------------|
B|-------3-------3-------3-------3-------3-------3-------3-------3-|
G|---0-------0-------0-------0-------2-------2-------2-------2-----|
D|------0------0-------0-------0-------0-------0-------0-------0---|
A|-----------------------------------------------------------------|
E|-3-------3-------3-------3-------2-------2-------2-------2-------|


   Em7                             Cadd9
e|-----------------------------------------------------------------|
B|-------3-------3-------3-------3-------3-------3-------3-------3-|
G|---0-------0-------0-------0-------0-------0-------0-------0-----|
D|-----0-------0-------0-------0-------2-------2-------2-------2---|
A|---------------------------------3-------3-------3-------3-------|
E|-0-------0-------0-------0---------------------------------------|

Bridge:
   Am7             C/B             C               C/B     
e|-----------------------------------------------------------------|
B|-------1-------1-------1-------1-------1-------1-------1-------1-|
G|---0-------0-------0-------0-------0-------0-------0-------0-----|
D|-----2-------2-------0-------0-------2-------2-------2-------0---|
A|-0-------0-------2-------2-------3-------3-------3-------2-------|
E|-----------------------------------------------------------------|
The day I found the stregnth inside me

   Am7             C/B             C               C/B     
e|-----------------------------------------------------------------|
B|-------1-------1-------1-------1-------1-------1-------1-------1-|
G|---0-------0-------0-------0-------0-------0-------0-------0-----|
D|-----2-------2-------0-------0-------2-------2-------2-------0---|
A|-0-------0-------2-------2-------3-------3-------3-------2-------|
E|-----------------------------------------------------------------|
just by finally realising.

   Am7             C/B             C               C/B     
e|-----------------------------------------------------------------|
B|-------1-------1-------1-------1-------1-------1-------1-------1-|
G|---0-------0-------0-------0-------0-------0-------0-------0-----|
D|-----2-------2-------0-------0-------2-------2-------2-------0---|
A|-0-------0-------2-------2-------3-------3-------3-------2-------|
E|-----------------------------------------------------------------|
Its the truth that is inside, that i really cannot hide

   Am7             C/B             C  you can pause here.  C/B     
e|-----------------------------------------------------------------|
B|-------1-------1-------1-------1-------1-------1-------1-------1-|
G|---0-------0-------0-------0-------0-------0-------0-------0-----|
D|-----2-------2-------0-------0-------2-------2-------2-------0---|
A|-0-------0-------2-------2-------3-------3-------3-------2-------|
E|-----------------------------------------------------------------|
my.... heart and mind

Chorus:
   G                               Dsus4/F#
e|-----------------------------------------------------------------|
B|-------3-------3-------3-------3-------3-------3-------3-------3-|
G|---0-------0-------0-------0-------2-------2-------2-------2-----|
D|------0------0-------0-------0-------0-------0-------0-------0---|
A|-----------------------------------------------------------------|
E|-3-------3-------3-------3-------2-------2-------2-------2-------|
Always felt I was protecting my

   Em7                             Cadd9
e|-----------------------------------------------------------------|
B|-------3-------3-------3-------3-------3-------3-------3-------3-|
G|---0-------0-------0-------0-------0-------0-------0-------0-----|
D|-----0-------0-------0-------0-------2-------2-------2-------2---|
A|---------------------------------3-------3-------3-------3-------|
E|-0-------0-------0-------0---------------------------------------|
Heart and mind, heart and mind

   G                               Dsus4/F#
e|-----------------------------------------------------------------|
B|-------3-------3-------3-------3-------3-------3-------3-------3-|
G|---0-------0-------0-------0-------2-------2-------2-------2-----|
D|------0------0-------0-------0-------0-------0-------0-------0---|
A|-----------------------------------------------------------------|
E|-3-------3-------3-------3-------2-------2-------2-------2-------|
but it seems like, to really feel alive

   Em7                             Cadd9
e|-----------------------------------------------------------------|
B|-------3-------3-------3-------3-------3-------3-------3-------3-|
G|---0-------0-------0-------0-------0-------0-------0-------0-----|
D|-----0-------0-------0-------0-------2-------2-------2-------2---|
A|---------------------------------3-------3-------3-------3-------|
E|-0-------0-------0-------0---------------------------------------|
I cannot hide my heart and mind.


   G                               Dsus4/F#
e|-----------------------------------------------------------------|
B|-------3-------3-------3-------3-------3-------3-------3-------3-|
G|---0-------0-------0-------0-------2-------2-------2-------2-----|
D|------0------0-------0-------0-------0-------0-------0-------0---|
A|-----------------------------------------------------------------|
E|-3-------3-------3-------3-------2-------2-------2-------2-------|

   Em7                             Cadd9
e|-------------------------------------------------------------------|
B|-------3-------3-------3-------3-------3-------3-------3-------3-3-|
G|---0-------0-------0-------0-------0-------0-------0-------0-------|
D|-----0-------0-------0-------0-------2-------2-------2-------2-----|
A|---------------------------------3-------3-------3-------3---------|
E|-0-------0-------0-------0---------------------------------------3-|
I cannot hide my heart and mind.

****************************************************************************
----------------------------------------------------------------------------
                   10. WITHOUT ME - Kina Grannis
----------------------------------------------------------------------------



Capo 2

Chords Used:
Bm     x24432
A      x02220
D/F#   200232
G      300030 
Dsus2  xx0230
Asus4  x02230

Basic riff (intro and verse):
   Bm      A     D/F#     G
e|-------x-----x--------x-----x-|
B|-----3-x-2---x------3-x-3---x-|
G|---4---x-2---x-----2--x-0-0-x-|
D|-------x---2-x--------x-----x-|
A|-2-----x-2---x--------x-----x-|
E|-------x-----x-2-2----x-3---x-|

Intro: Bm A D/F# G x2

Verse:
Bm   A      D/F#      G      Bm
 you let me know that i was done
     A     D/F#     G      Bm  A  D/F#  G 
 put me to rest far away from 
 Bm  A  D/F# G
 you.
Bm  A          D/F#       G   Bm
 no words will go between us now
     A         D/F#      G         Bm A D/F# G
 and you think this will help somehow
 Bm   A  D/F# G
 somehow

Chorus:
Dsus2       Asus4
 but if you care i'm open
Bm           G
 and if you need i'll stay awhile
Dsus2       Asus4
 so you can get this off your chest
Bm             G                  Dsus2
 prove to yourself without me is best
            Asus4             Bm            G
 i don't believe you'd rather go on without me
                Dsuus2           Asus4
 that you think this is what you need
              Bm
 that you're better
             G              Bm  A D/F# G
 that you're better without me
     Bm    A D/F# G
 without me

Verse: 
Bm A     D/F#      G
 another heartfelt letter
Bm  A        D/F#     G          Bm
 followed by signs of your lament
     A     D/F#      G
 you say i should be better
 Bm      A         D/F#   G
 and educate me on my flaws

Chorus:
Dsus2       Asus4
 but if you care i'm open
Bm           G
 and if you need i'll stay awhile
Dsus2       Asus4
 so you can get this off your chest
Bm             G                  Dsus2
 prove to yourself without me is best
            Asus4             Bm            G
 i don't believe you'd rather go on without me
                Dsuus2           Asus4
 that you think this is what you need
              Bm
 that you're better
             G              Bm  A D/F# G
 that you're better without me
     Bm    A D/F# G
 without me

Bridge:
 Asus4                 
 oh now you're coming around here
G
 doing what you do
     Asus4           
 you're making this hard
     G
 me living without you
    Asus4                    G
 oh don't you see that it's simple
   Asus4                       G
 oh don't you see that it's so obvious
    Asus4                    
 oh it should be you and me constantly
   G
 i can't let go

Chorus:
Dsus2       Asus4
 but if you care i'm open
Bm           G
 and if you need i'll stay awhile
Dsus2       Asus4
 so you can get this off your chest
Bm             G                  Dsus2
 prove to yourself without me is best
            Asus4             Bm            G
 i don't believe you'd rather go on without me
                Dsuus2           Asus4
 that you think this is what you need
              Bm
 that you're better
             G              Bm  A D/F# G
 that you're better without me
     Bm    A D/F# G
 without me
     Bm    A D/F# G
 without me
     Bm    A D/F# G
 without me

Bm

****************************************************************************
----------------------------------------------------------------------------
                   11.  DELICATE - Kina Grannis			   
----------------------------------------------------------------------------

Tuning: Standard, Capo 1

Finger positions: Keep your 1st and 3rd fingers on the G and B strings,
        use your 4th finger to play A string, and your thumb to play E     
        string, 2nd fret, and your 2nd finger to play E string, 3rd fret!
        You can play the chorus in the same way or play regular chords!

Intro:
e|-----------------------------------------------------------|
B|---3-3---3-3---3-3-----3-3-----3-3---3-3---3-3-----3-3-----|
G|---2-2---2-2---2-2p0---0-0h2---2-2---2-2---2-2p0---0-0h2---|
D|-0---------------------------0-----------------------------|
A|-------4---------------------------4-----------------------|
E|-------------2-------3-------------------2-------3---------|

Verse:
e|-----------------------------------------------------------|
B|---3-3---3-3---3-3-----3-3-----3-3---3-3---3-3-----3-3-----|
G|---2-2---2-2---2-2p0---0-0h2---2-2---2-2---2-2p0---0-0h2---|
D|-0---------------------------0-----------------------------|
A|-------4---------------------------4-----------------------|
E|-------------2-------3-------------------2-------3---------|
You said, "Be careful, it's delicate, things can just crumble apart."

e|-----------------------------------------------------------|
B|---3-3---3-3---3-3-----3-3-----3-3---3-3---3-3-----3-3-----|
G|---2-2---2-2---2-2p0---0-0h2---2-2---2-2---2-2p0---0-0h2---|
D|-0---------------------------0-----------------------------|
A|-------4---------------------------4-----------------------|
E|-------------2-------3-------------------2-------3---------|
But it's not the same for me. It's not the same for me.


Verse:
e|-----------------------------------------------------------|
B|---3-3---3-3---3-3-----3-3-----3-3---3-3---3-3-----3-3-----|
G|---2-2---2-2---2-2p0---0-0h2---2-2---2-2---2-2p0---0-0h2---|
D|-0---------------------------0-----------------------------|
A|-------4---------------------------4-----------------------|
E|-------------2-------3-------------------2-------3---------|
So I kept treading so carelessly. Thin lines that splintered my ground.

e|-----------------------------------------------------------|
B|---3-3---3-3---3-3-----3-3-----3-3---3-3---3-3-----3-3-----|
G|---2-2---2-2---2-2p0---0-0h2---2-2---2-2---2-2p0---0-0h2---|
D|-0---------------------------0-----------------------------|
A|-------4---------------------------4-----------------------|
E|-------------2-------3-------------------2-------3---------|
But I closed my eyes to them, I closed my eyes to them.


CHORUS: (strum)
e|-0----0----0----3----0----0----0----3----|
B|-3----3----3----3----3----3----3----3----|
G|-2----2----2----0----2----2----2----0----|
D|-0----0----0----0----0----0----0----0----|
A|-x----4----0----0----x----4----0----0----|
E|-x----x----2----3----x----x----2----3----|
How did you know that I couldn't be what everyone wanted me to be?

e|-0----0----0----3----0----0----0----3----|
B|-3----3----3----3----3----3----3----3----|
G|-2----2----2----0----2----2----2----0----|
D|-0----0----0----0----0----0----0----0----|
A|-x----4----0----0----x----4----0----0----|
E|-x----x----2----3----x----x----2----3----|
And how did you know that I wouldn't see when everything falls away from me?

e|-0----0----0----3----|
B|-3----3----3----3----|
G|-2----2----2----0----|
D|-0----0----0----0----|
A|-x----4----0----0----|
E|-x----x----2----3----|
When everything falls away from me.

e|------------------------------------------------------|
B|---3-3---3-3---3-3-----3-3-----3-3---3-3---3-3--------|
G|---2-2---2-2---2-2p0---0-0h2---2-2---2-2---2-2p0------|
D|-0---------------------------0------------------------|
A|-------4---------------------------4------------------|
E|-------------2-------3-------------------2--------3---|


Verse:
e|-----------------------------------------------------------|
B|---3-3---3-3---3-3-----3-3-----3-3---3-3---3-3-----3-3-----|
G|---2-2---2-2---2-2p0---0-0h2---2-2---2-2---2-2p0---0-0h2---|
D|-0---------------------------0-----------------------------|
A|-------4---------------------------4-----------------------|
E|-------------2-------3-------------------2-------3---------|
One day I woke in the rubble knee-deep in damage I'd done.

e|-----------------------------------------------------------|
B|---3-3---3-3---3-3-----3-3-----3-3---3-3---3-3-----3-3-----|
G|---2-2---2-2---2-2p0---0-0h2---2-2---2-2---2-2p0---0-0h2---|
D|-0---------------------------0-----------------------------|
A|-------4---------------------------4-----------------------|
E|-------------2-------3-------------------2-------3---------|
And I was ashamed of it, How did it come to this?


CHORUS: (strum)
e|-0----0----0----3----0----0----0----3----|
B|-3----3----3----3----3----3----3----3----|
G|-2----2----2----0----2----2----2----0----|
D|-0----0----0----0----0----0----0----0----|
A|-x----4----0----0----x----4----0----0----|
E|-x----x----2----3----x----x----2----3----|
How did you know that I couldn't be what everyone wanted me to be?

e|-0----0----0----3----0----0----0----3----|
B|-3----3----3----3----3----3----3----3----|
G|-2----2----2----0----2----2----2----0----|
D|-0----0----0----0----0----0----0----0----|
A|-x----4----0----0----x----4----0----0----|
E|-x----x----2----3----x----x----2----3----|
And how did you know that I wouldn't see when everything falls away from me?

e|-0----0----0----3----|
B|-3----3----3----3----|
G|-2----2----2----0----|
D|-0----0----0----0----|
A|-x----4----0----0----|
E|-x----x----2----3----|
When everything falls away from me.


Instumental:
e|-3--------0--------3--------0--------|
B|-3--------3--------3--------3--------|
G|-0--------2--------0--------2--------|
D|-0--------0--------0--------0--------|
A|-0--------0--------0--------0--------|
E|-3--------2--------3--------2--------|


CHORUS: (strum)
e|-0----0----0----3----0----0----0----3----|
B|-3----3----3----3----3----3----3----3----|
G|-2----2----2----0----2----2----2----0----|
D|-0----0----0----0----0----0----0----0----|
A|-x----4----0----0----x----4----0----0----|
E|-x----x----2----3----x----x----2----3----|
How did you know that I couldn't be what everyone wanted me to be?

e|-0----0----0----3----0----0----0----3----|
B|-3----3----3----3----3----3----3----3----|
G|-2----2----2----0----2----2----2----0----|
D|-0----0----0----0----0----0----0----0----|
A|-x----4----0----0----x----4----0----0----|
E|-x----x----2----3----x----x----2----3----|
And how did you know that I wouldn't see when everything falls away from me?

e|-0----0----0----3----0----0----0----3----|
B|-3----3----3----3----3----3----3----3----|
G|-2----2----2----0----2----2----2----0----|
D|-0----0----0----0----0----0----0----0----|
A|-x----4----0----0----x----4----0----0----|
E|-x----x----2----3----x----x----2----3----|
When everything falls away from me, when everything falls away from me.

*****************************************************************************
----------------------------------------------------------------------------
                12. THE GOLDFISH SONG - Kina Grannis
----------------------------------------------------------------------------


Tuning: Capo 1,  EGDGBe  (tune the A string down one whole step to G)

(+ is a harmonic! But this is not really necassary!)

Intro:
e|------------------------------------------------------------------|
B|-----0-------0-------0-------0-------0-------0-------0-------0----|
G|-----0-------0-------0-------7+------0-------0-------0-------7+---|
D|---0---0---4---4---5---5---7---7---0---0---4---4---5---5---7---7--|
G|-0-------4-------5-------7-------0-------4-------5-------7--------|
E|------------------------------------------------------------------|

Verse 1:
e|------------------------------------------------------------------|
B|-----0-------0-------0-------0-------0-------0-------0-------0----|
G|-----0-------0-------0-------7+------0-------0-------0-------7+---|
D|---0---0---4---4---5---5---7---7---0---0---4---4---5---5---7---7--|
G|-0-------4-------5-------7-------0-------4-------5-------7--------|
E|------------------------------------------------------------------|
I feel defeated again, I'm always losing to myself.

e|------------------------------------------------------------------|
B|-----0-------0-------0-------0-------0-------0-------0-------0----|
G|-----0-------0-------0-------7+------0-------0-------0-------7+---|
D|---0---0---4---4---5---5---7---7---0---0---4---4---5---5---7---7--|
G|-0-------4-------5-------7-------0-------4-------5-------7--------|
E|------------------------------------------------------------------|
I tried to build a better me. Shack to castle and it fell down.

e|------------------------------------------------------------------|
B|-----0-------0-------0-------0-------0-------0-------0-------0----|
G|-----0-------0-------0-------7+------0-------0-------0-------7+---|
D|---0---0---4---4---5---5---7---7---0---0---4---4---5---5---7---7--|
G|-0-------4-------5-------7-------0-------4-------5-------7--------|
E|------------------------------------------------------------------|

Verse 2:
e|------------------------------------------------------------------|
B|-----0-------0-------0-------0-------0-------0-------0-------0----|
G|-----0-------0-------0-------7+------0-------0-------0-------7+---|
D|---0---0---4---4---5---5---7---7---0---0---4---4---5---5---7---7--|
G|-0-------4-------5-------7-------0-------4-------5-------7--------|
E|------------------------------------------------------------------|
I had the right intentions. Sometimes, my hope envelopes me.

e|------------------------------------------------------------------|
B|-----0-------0-------0-------0-------0-------0-------0-------0----|
G|-----0-------0-------0-------7+------0-------0-------0-------7+---|
D|---0---0---4---4---5---5---7---7---0---0---4---4---5---5---7---7--|
G|-0-------4-------5-------7-------0-------4-------5-------7--------|
E|------------------------------------------------------------------|
And I can't learn the lesson not to send a goldfish to the sea.

Chorus: Strum (all downstrokes! 8 on the 9th fret, 3 on the 5th fret and 5
        with all strings open!)
e|-0-------0--0----0-------0--0------|
B|-0-------0--0----0-------0--0------|
G|-0-------0--0----0-------0--0------|
D|-9-------5--0----9-------5--0------|
G|-9-------5--0----9-------5--0------|
E|-0-------0--0----0-------0--0------|
This matter is mine, don't worry, I'm fine. This matter is mine.

e|-0-------0--0----0-------0--0------|
B|-0-------0--0----0-------0--0------|
G|-0-------0--0----0-------0--0------|
D|-9-------5--0----9-------5--0------|
G|-9-------5--0----9-------5--0------|
E|-0-------0--0----0-------0--0------|
This matter is mine, don't worry, I'm fine. This matter is mine.

e|------------------------------------------------------------------|
B|-----0-------0-------0-------0-------0-------0-------0-------0----|
G|-----0-------0-------0-------7+------0-------0-------0-------7+---|
D|---0---0---4---4---5---5---7---7---0---0---4---4---5---5---7---7--|
G|-0-------4-------5-------7-------0-------4-------5-------7--------|
E|------------------------------------------------------------------|

Verse 3:
e|------------------------------------------------------------------|
B|-----0-------0-------0-------0-------0-------0-------0-------0----|
G|-----0-------0-------0-------7+------0-------0-------0-------7+---|
D|---0---0---4---4---5---5---7---7---0---0---4---4---5---5---7---7--|
G|-0-------4-------5-------7-------0-------4-------5-------7--------|
E|------------------------------------------------------------------|
I know what you've been thinking, it's too soon to empty my cocoon.

e|------------------------------------------------------------------|
B|-----0-------0-------0-------0-------0-------0-------0-------0----|
G|-----0-------0-------0-------7+------0-------0-------0-------7+---|
D|---0---0---4---4---5---5---7---7---0---0---4---4---5---5---7---7--|
G|-0-------4-------5-------7-------0-------4-------5-------7--------|
E|------------------------------------------------------------------|
This butterfly's not ready but, wouldn't she know better than you?


Chorus: Strum
e|-0-------0--0----0-------0--0------|
B|-0-------0--0----0-------0--0------|
G|-0-------0--0----0-------0--0------|
D|-9-------5--0----9-------5--0------|
G|-9-------5--0----9-------5--0------|
E|-0-------0--0----0-------0--0------|
This matter is mine, don't worry, I'm fine. This matter is mine.

e|-0-------0--0----0-------0--0------|
B|-0-------0--0----0-------0--0------|
G|-0-------0--0----0-------0--0------|
D|-9-------5--0----9-------5--0------|
G|-9-------5--0----9-------5--0------|
E|-0-------0--0----0-------0--0------|
This matter is mine, don't worry, I'm fine. This matter is mine.

Bridge: Strum lighter.
e|-0-------0--0----0-------0--0------|
B|-0-------0--0----0-------0--0------|
G|-0-------0--0----0-------0--0------|
D|-9-------5--0----9-------5--0------|
G|-9-------5--0----9-------5--0------|
E|-0-------0--0----0-------0--0------|
I'm not gonna give it up, Im not gonna give it up.

e|-0-------0--0----0-------0--0------|
B|-0-------0--0----0-------0--0------|
G|-0-------0--0----0-------0--0------|
D|-9-------5--0----9-------5--0------|
G|-9-------5--0----9-------5--0------|
E|-0-------0--0----0-------0--0------|
I'm not gonna give it up, I'm not gonna give it up.

Chorus: Backs to heavier strumming!
e|-0-------0--0----0-------0--0------|
B|-0-------0--0----0-------0--0------|
G|-0-------0--0----0-------0--0------|
D|-9-------5--0----9-------5--0------|
G|-9-------5--0----9-------5--0------|
E|-0-------0--0----0-------0--0------|
I'm not gonna give it up, Im not gonna give it up.
(This matter is mine, don't worry, I'm fine. This matter is mine.)

e|-0-------0--0----0-------0--0------|
B|-0-------0--0----0-------0--0------|
G|-0-------0--0----0-------0--0------|
D|-9-------5--0----9-------5--0------|
G|-9-------5--0----9-------5--0------|
E|-0-------0--0----0-------0--0------|
I'm not gonna give it up, I'm not gonna give it up.
(This matter is mine, don't worry, I'm fine. This matter is mine.)

(stum this bit lightly!)
e|-0-------0--0----0-------0--0------|
B|-0-------0--0----0-------0--0------|
G|-0-------0--0----0-------0--0------|
D|-9-------5--0----9-------5--0------|
G|-9-------5--0----9-------5--0------|
E|-0-------0--0----0-------0--0------|
This matter is mine, don't worry, I'm fine. This matter is mine.

e|-0-------0--0----0-----------------|
B|-0-------0--0----0-----------0-----|
G|-0-------0--0----0-----------0-----|
D|-9-------5--0----9---------5-------|
G|-9-------5--0----9-------5-----0---|
E|-0-------0--0----0-----------------|
This matter is mine, don't worry, I'm fine. This matter is mine.

*****************************************************************************
----------------------------------------------------------------------------
			 13.  MR SUN - Kina Grannis
----------------------------------------------------------------------------


Tuning: Capo 1

Chords Used:
A     x02220
F#m   244222
E     022100
D*    xx0232
Bm    x24432
(*when on D, 4th fret, 5th string is sometimes pressed down. Use 4th finger to do this!)
Intro:
  A
e|---------------------------------|
B|-------2-------2-------2-------2-|
G|---2-------2-------2------2------|
D|-----2-------2-------2-------2---|
A|-0-------0-------0-------0-------|
E|---------------------------------|

Verse:
   A                               F#m
e|-----------------------------------------------------------------|
B|-------2-------2-------2-------2-------2-------2-------2-------2-|
G|---2-------2-------2-------2-------2-------2-------2-------2-----|
D|-----2-------2-------2-------2-------4-------4-------4-------4---|
A|-0-------0-------0-------0---------------------------------------|
E|---------------------------------2-------2-------2-------2-------|
The spring time brings out,

   E                               D               E
e|-----------------------------------------------------------------|
B|-------0-------0-------0-------0-------3-------3-------0-------0-|
G|---1-------1-------1-------1-------2-------2-------1-------1-----|
D|-----2-------2-------2-------2---0---0---------------2-------2---|
A|-----------------------------------------4---4-------------------|
E|-0-------0-------0-------0-----------------------0-------0-------|
The brightest green in things.

   A                               F#m
e|-----------------------------------------------------------------|
B|-------2-------2-------2-------2-------2-------2-------2-------2-|
G|---2-------2-------2-------2-------2-------2-------2-------2-----|
D|-----2-------2-------2-------2-------4-------4-------4-------4---|
A|-0-------0-------0-------0---------------------------------------|
E|---------------------------------2-------2-------2-------2-------|
And Tiny sprouts push the soil from their

   E                               D               E
e|-----------------------------------------------------------------|
B|-------0-------0-------0-------0-------3-------3-------0-------0-|
G|---1-------1-------1-------1-------2-------2-------1-------1-----|
D|-----2-------2-------2-------2---0---0---------------2-------2---|
A|-----------------------------------------4---4-------------------|
E|-0-------0-------0-------0-----------------------0-------0-------|
way, Mr. Sun, please don't go

  A
e|---------------------------------|
B|-------2-------2-------2-------2-|
G|---2-------2-------2------2------|
D|-----2-------2-------2-------2---|
A|-0-------0-------0-------0-------|
E|---------------------------------|
away.

Chorus:
   F#m                             E
e|-----------------------------------------------------------------|
B|-------2-------2-------2-------2-------0-------0-------0-------0-|
G|---2-------2-------2-------2-------1-------1-------1-------1-----|
D|-----4-------4-------4-------4-------2-------2-------2-------2---|
A|-----------------------------------------------------------------|
E|-2-------2-------2-------2-------0-------0-------0-------0-------|
'cause the winter saddened all the flowers

   A                               D
e|---------------------------------------2-------2-------2-------2-|
B|-------2-------2-------2-------2---3-------3-------3-------3-----|
G|---2-------2-------2-------2----------2------2-------2-------2---|
D|-----2-------2-------2-------2---0-------0-------0-------0-------|
A|-0-------0-------0-------0---------------------------------------|
E|-----------------------------------------------------------------|
And the ocean turned to gray

   F#m                             E
e|-----------------------------------------------------------------|
B|-------2-------2-------2-------2-------0-------0-------0-------0-|
G|---2-------2-------2-------2-------1-------1-------1-------1-----|
D|-----4-------4-------4-------4-------2-------2-------2-------2---|
A|-----------------------------------------------------------------|
E|-2-------2-------2-------2-------0-------0-------0-------0-------|
And the sky cried out for days and days

   D                               D               E
e|-------2-------2-------2-------2---------------------------------|
B|---3-------3-------3-------3-----------3-------3-------0-------0-|
G|-----2-------2-------2-------2-----2-------2-------1-------1-----|
D|-0-------0-------0-------0-------0---0---------------2-------2---|
A|-----------------------------------------4---4-------------------|
E|-------------------------------------------------0-------0-------|
Mr. Sun, please don't go away

  A
e|---------------------------------|
B|-------2-------2-------2-------2-|
G|---2-------2-------2------2------|
D|-----2-------2-------2-------2---|
A|-0-------0-------0-------0-------|
E|---------------------------------|


Verse:
   A                               F#m
e|-----------------------------------------------------------------|
B|-------2-------2-------2-------2-------2-------2-------2-------2-|
G|---2-------2-------2-------2-------2-------2-------2-------2-----|
D|-----2-------2-------2-------2-------4-------4-------4-------4---|
A|-0-------0-------0-------0---------------------------------------|
E|---------------------------------2-------2-------2-------2-------|
The birds and bees all sing happy things as they fly

   E                               D               E
e|-----------------------------------------------------------------|
B|-------0-------0-------0-------0-------3-------3-------0-------0-|
G|---1-------1-------1-------1-------2-------2-------1-------1-----|
D|-----2-------2-------2-------2---0---0---------------2-------2---|
A|-----------------------------------------4---4-------------------|
E|-0-------0-------0-------0-----------------------0-------0-------|
into the sky

   A                               F#m
e|-----------------------------------------------------------------|
B|-------2-------2-------2-------2-------2-------2-------2-------2-|
G|---2-------2-------2-------2-------2-------2-------2-------2-----|
D|-----2-------2-------2-------2-------4-------4-------4-------4---|
A|-0-------0-------0-------0---------------------------------------|
E|---------------------------------2-------2-------2-------2-------|
And lonely trees will grow families in their leaves

   E                               D               E
e|-----------------------------------------------------------------|
B|-------0-------0-------0-------0-------3-------3-------0-------0-|
G|---1-------1-------1-------1-------2-------2-------1-------1-----|
D|-----2-------2-------2-------2---0---0---------------2-------2---|
A|-----------------------------------------4---4-------------------|
E|-0-------0-------0-------0-----------------------0-------0-------|
Mr. Sun, stay here won't you please

  A
e|---------------------------------|
B|-------2-------2-------2-------2-|
G|---2-------2-------2------2------|
D|-----2-------2-------2-------2---|
A|-0-------0-------0-------0-------|
E|---------------------------------|


Chorus:
   F#m                             E
e|-----------------------------------------------------------------|
B|-------2-------2-------2-------2-------0-------0-------0-------0-|
G|---2-------2-------2-------2-------1-------1-------1-------1-----|
D|-----4-------4-------4-------4-------2-------2-------2-------2---|
A|-----------------------------------------------------------------|
E|-2-------2-------2-------2-------0-------0-------0-------0-------|
'cause the winter saddened all the flowers

   A                               D
e|---------------------------------------2-------2-------2-------2-|
B|-------2-------2-------2-------2---3-------3-------3-------3-----|
G|---2-------2-------2-------2----------2------2-------2-------2---|
D|-----2-------2-------2-------2---0-------0-------0-------0-------|
A|-0-------0-------0-------0---------------------------------------|
E|-----------------------------------------------------------------|
And the ocean turned to gray

   F#m                             E
e|-----------------------------------------------------------------|
B|-------2-------2-------2-------2-------0-------0-------0-------0-|
G|---2-------2-------2-------2-------1-------1-------1-------1-----|
D|-----4-------4-------4-------4-------2-------2-------2-------2---|
A|-----------------------------------------------------------------|
E|-2-------2-------2-------2-------0-------0-------0-------0-------|
And the sky cried out for days and days

   D                               D               E
e|-------2-------2-------2-------2---------------------------------|
B|---3-------3-------3-------3-----------3-------3-------0-------0-|
G|-----2-------2-------2-------2-----2-------2-------1-------1-----|
D|-0-------0-------0-------0-------0---0---------------2-------2---|
A|-----------------------------------------4---4-------------------|
E|-------------------------------------------------0-------0-------|
Mr. Sun, please don't go away

  A
e|---------------------------------|
B|-------2-------2-------2-------2-|
G|---2-------2-------2------2------|
D|-----2-------2-------2-------2---|
A|-0-------0-------0-------0-------|
E|---------------------------------|


Outro:
   F#m                             A
e|-----------------------------------------------------------------|
B|-------2-------2-------2-------2-------2-------2-------2-------2-|
G|---2-------2-------2-------2-------2-------2-------2-------2-----|
D|-----4-------4-------4-------4-------2-------2-------2-------2---|
A|---------------------------------0-------0-------0-------0-------|
E|-2-------2-------2-------2---------------------------------------|
mmmm...

   F#m                             A
e|-----------------------------------------------------------------|
B|-------2-------2-------2-------2-------2-------2-------2-------2-|
G|---2-------2-------2-------2-------2-------2-------2-------2-----|
D|-----4-------4-------4-------4-------2-------2-------2-------2---|
A|---------------------------------0-------0-------0-------0-------|
E|-2-------2-------2-------2---------------------------------------|
mmmm...

   Bm              
e|---------------------------------|
B|-------3-------3-------3-------3-|
G|---4-------4-------4-------4-----|
D|-----4-------4-------4-------4---|
A|-2-------2-------2-------2-------|
E|---------------------------------|
mmmm...
   E               A
e|---------------------------------|
B|-------0-------0-------2---------|
G|---1-------1-------2-----2---2---|
D|-----2-------2-------2-----------|
A|-----------------0---------0---0-|
E|-0-------0-----------------------|
mmmm...

****************************************************************************
----------------------------------------------------------------------------
			 14. TOGETHER - Kina Grannis
----------------------------------------------------------------------------


Tuning: Capo 1

Chords Used: (all chords relative to Capo)
C     x32010
E*    070000 (Its an Eish thing! Not sure of the name!)
G     320033
G*    320000 (played whilst picking, if strumming play regular G)
F     133211
Am    x02210

Intro:
    C                       E*
e|----0-----0-----0-----0-----0-----0-----0-----0-----|
B|----1-----1-----1-----1-----0-----0-----0-----0-----|
G|------0-----0-----0-----0-----0-----0-----0-----0---|
D|----------------------------------------------------|
A|--3-----3-----3-----3-----7-----7-----7-----7-------|
E|----------------------------------------------------|

    Am                      F           G*
e|----------------------------------------------------|
B|----1-----1-----1-----1-----1-----1-----------------|
G|----2-----2-----2-----2-----2-----2-------0---------|
D|------2-----2-----2-----2-----3-----3----0----------|
A|--0-----0-----0-----0-------------------------------|
E|--------------------------1-----1-----3------3------|

Verse:

    C                       G*
e|----------------------------------------------------|
B|----1-----1-----1-----1-----0-----0-----0-----0-----|
G|----0-----0-----0-----0-----0-----0-----0-----0-----|
D|------2-----2-----2-----2-----0-----0-----0-----0---|
A|--3-----3-----3-----3-------------------------------|
E|--------------------------3-----3-----3-----3-------|
One time I dreamt an unknown land, with jungle trees and the blackest sand.

    Am                      F           G*
e|----------------------------------------------------|
B|----1-----1-----1-----1-----1-----1-----------------|
G|----2-----2-----2-----2-----2-----2-------0---------|
D|------2-----2-----2-----2-----3-----3----0----------|
A|--0-----0-----0-----0-------------------------------|
E|--------------------------1-----1-----3------3------|
Had taken us as prisoners in the night.

    C                       G*
e|----------------------------------------------------|
B|----1-----1-----1-----1-----0-----0-----0-----0-----|
G|----0-----0-----0-----0-----0-----0-----0-----0-----|
D|------2-----2-----2-----2-----0-----0-----0-----0---|
A|--3-----3-----3-----3-------------------------------|
E|--------------------------3-----3-----3-----3-------|
Upon its shore we could not sleep. Instead we stayed awake to keep

    Am                      F           G*
e|----------------------------------------------------|
B|----1-----1-----1-----1-----1-----1-----------------|
G|----2-----2-----2-----2-----2-----2-------0---------|
D|------2-----2-----2-----2-----3-----3----0----------|
A|--0-----0-----0-----0-------------------------------|
E|--------------------------1-----1-----3------3------|
Our minds off hidden monsters and the like.

Pre-Chorus:
    C                       G*
e|----------------------------------------------------|
B|----1-----1-----1-----1-----0-----0-----0-----0-----|
G|----0-----0-----0-----0-----0-----0-----0-----0-----|
D|------2-----2-----2-----2-----0-----0-----0-----0---|
A|--3-----3-----3-----3-------------------------------|
E|--------------------------3-----3-----3-----3-------|
Hour by hour we passed the time. We watched a motion picture in the sky.

    Am                      F           G*
e|----------------------------------------------------|
B|----1-----1-----1-----1-----1-----1-----------------|
G|----2-----2-----2-----2-----2-----2-------0---------|
D|------2-----2-----2-----2-----3-----3----0----------|
A|--0-----0-----0-----0-------------------------------|
E|--------------------------1-----1-----3------3------|
You were the clouds and I was the moon.

Chorus:(strum or pick, if strumming play regular G)
    C                       G*
e|----------------------------------------------------|
B|----1-----1-----1-----1-----0-----0-----0-----0-----|
G|----0-----0-----0-----0-----0-----0-----0-----0-----|
D|------2-----2-----2-----2-----0-----0-----0-----0---|
A|--3-----3-----3-----3-------------------------------|
E|--------------------------3-----3-----3-----3-------|
You and me together, 

    F                       G*
e|----------------------------------------------------|
B|----1-----1-----1-----1-----0-----0-----0-----0-----|
G|----2-----2-----2-----2-----0-----0-----0-----0-----|
D|------3-----3-----3-----3-----0-----0-----0-----0---|
A|----------------------------------------------------|
E|--1-----1-----1-----1-----3-----3-----3-----3-------|
together, together.

Verse:
    C                       G*
e|----------------------------------------------------|
B|----1-----1-----1-----1-----0-----0-----0-----0-----|
G|----0-----0-----0-----0-----0-----0-----0-----0-----|
D|------2-----2-----2-----2-----0-----0-----0-----0---|
A|--3-----3-----3-----3-------------------------------|
E|--------------------------3-----3-----3-----3-------|
Then waves came crashing down on me and they tried to take me out to sea.

    Am                      F           G*
e|----------------------------------------------------|
B|----1-----1-----1-----1-----1-----1-----------------|
G|----2-----2-----2-----2-----2-----2-------0---------|
D|------2-----2-----2-----2-----3-----3----0----------|
A|--0-----0-----0-----0-------------------------------|
E|--------------------------1-----1-----3------3------|
You fought them off so gallantly and won.

    C                       G*
e|----------------------------------------------------|
B|----1-----1-----1-----1-----0-----0-----0-----0-----|
G|----0-----0-----0-----0-----0-----0-----0-----0-----|
D|------2-----2-----2-----2-----0-----0-----0-----0---|
A|--3-----3-----3-----3-------------------------------|
E|--------------------------3-----3-----3-----3-------|
So back again upon our shore. We really wanted nothing more,

    Am                      F           G*
e|----------------------------------------------------|
B|----1-----1-----1-----1-----1-----1-----------------|
G|----2-----2-----2-----2-----2-----2-------0---------|
D|------2-----2-----2-----2-----3-----3----0----------|
A|--0-----0-----0-----0-------------------------------|
E|--------------------------1-----1-----3------3------|
Than to hold each other 'til our arms grew tired.

Pre-Chorus: (palm mute, strum)
     C     
Then slowly like a timid flower
     G                      
The sun rose up at just the hour
     Am                                F    G
When we had slowly slipped out of my dream.

Chorus: (strum)
C            G         F          G
You and me together, together, together.
C            G         F          G
You and me together, together, together.
                     C 
Together is all we need.

Bridge:
           E*                   Am                  F   G
Buh du ba ba, ba da dum, ba bad da, ba ba bad da bum.

Chorus: (palm mute, then strum normally)
C            G         F          G
You and me together, together, together.
C            G         F          G
You and me together, together, together.
                      C
Together is all we need.

Outro: (you could pick or strum this bit.)
  G          Am                              F   G
Oooh, da da dum, na da da bum, na da da bum bum.

*****************************************************************************
----------------------------------------------------------------------------
			15. Strong Enough - Kina Grannis
----------------------------------------------------------------------------

This is ver 3, I posted when not logged in!

Tuning: Capo 2

Chords Used:

Em     033000
C      x32010
G      320033
D/F#   200230
Emadd9 x34030   (this is just a C chord that you slide up 2 frets!)
Cadd9  x32033
Am     x02210

Intro: Em  C   G   D/F# x2

Verse 1+2:

Em   C           G       D/F#
 Welcome to the days of wariness
Em         C          G       D/F#
 Where I'm feeling an echo inside my chest, 
Em        C           G          D/F#
 I've a heart beating patiently along, 
         Em           C            G           D/F#
 Waiting for the other half of it's song

Em    C                  G            D/F#
 And times have told the ways things come to light
Em      C       G        D/F#
 Realizing a lack in your will to fight
Em       C           G            D/F#
 Despite words crying inconsistencies, 
        Em         C          G        D/F#
 As you fall uneasily to your knees,
      C      Emadd9
 your knees

Chorus:

Em D/F# Cadd9           Em     
 No----,   it's not enough
       D/F#     Cadd9
 Don't touch my hand and call it love
Em   D/F#      Cadd9           Em 
 If you can't hold it tight, tonight
    D/F#       Cadd9 (strum once.)
 If you're not strong enough

Em  C   G   D/F# x2

Verse 3:
Em   C        G                  D/F#
 And I'm not blind to what you're doing here
Em       C             G 
 Make me feel like I'm special, 
  D/F#        Em     C              G                D/F#
 But my dear, I have seen through a weakness in your eyes
           Em                  C          G       D/F#        
 You don't know it, but you're telling me lies, 
    C     Emadd9
 Me lies

 Chorus:

Em D/F# Cadd9           Em     
 No----,   it's not enough
       D/F#     Cadd9
 Don't touch my hand and call it love
Em   D/F#      Cadd9           Em 
 If you can't hold it tight, tonight
    D/F#       Cadd9 
 If you're not strong enough
 
Bridge:

Am               C                 G       D/F#         Em
 I thought we'd found a harmony, a perfect match of melodies
         C             (C)                    Emadd9
 No, But if you listen closely now, I've been singing all alone

Chorus:

Em D/F# Cadd9           Em     
 No----,   it's not enough
       D/F#     Cadd9
 Don't touch my hand and call it love
Em   D/F#      Cadd9           Em 
 If you can't hold it tight, tonight
    D/F#       Cadd9 (strum once.)
 If you're not strong enough


Em D/F# Cadd9           Em     
 No----,   it's not enough
       D/F#     Cadd9
 Don't touch my hand and call it love
Em   D/F#      Cadd9           Em 
 If you can't hold it tight, tonight
    D/F#       Cadd9     Em   D/F#
 If you're not strong enough, no
Cadd9     Em    D/F#    Cadd9 
 Strong enough, no
            Em   D/F#   Cadd9
 Don't call it love, no no
Em   D/F#      Cadd9 (strum once.)
 If you're not strong enough.

*****************************************************************************
----------------------------------------------------------------------------
                          16. CAMBRIDGE - Kina Grannis
----------------------------------------------------------------------------


Tuning: Capo 4

Chords:
G         320033
Dsus4/F#  200333 (*D/F# in the chorus! I couldn't fit the whole name on!)
Em7       022033
Cadd9     x32033
Am        x02210

Intro:
e|-----------------------------------------------------------------|
B|-----3-------3-------3-------3-------3-------3-------3-------3---|
G|-----2p0-----2p0-----2p0-----2p0-----2p0-----2p0-----2p0-----2p0-|
D|-----------------------------------------------------------------|
A|-----------------------------------------------------------------|
E|-3-3-----3-3-----3-3-----3-3-----0-0-----0-0-----0-0-----0-0-----|

e|-----------------------------------------------------------------|
B|-----3-------3-------3-------3-------3-------3-------3-------3---|
G|-----2p0-----2p0-----2p0-----2p0-----2p0-----2p0-----2p0-----2p0-|
D|-----------------------------------------------------------------|
A|-----------------------------------------------------------------|
E|-3-3-----3-3-----3-3-----3-3-----0-0-----0-0-----0-0-----0-0-----|

Verse:
e|-----------------------------------------------------------------|
B|-----3-------3-------3-------3-------3-------3-------3-------3---|
G|-----2p0-----2p0-----2p0-----2p0-----2p0-----2p0-----2p0-----2p0-|
D|-----------------------------------------------------------------|
A|-----------------------------------------------------------------|
E|-3-3-----3-3-----3-3-----3-3-----0-0-----0-0-----0-0-----0-0-----|
Just give it to me quick, are you coming home?

e|-----------------------------------------------------------------|
B|-----3-------3-------3-------3-------3-------3-------3-------3---|
G|-----2p0-----2p0-----2p0-----2p0-----2p0-----2p0-----2p0-----2p0-|
D|-----------------------------------------------------------------|
A|-----------------------------------------------------------------|
E|-3-3-----3-3-----3-3-----3-3-----0-0-----0-0-----0-0-----0-0-----|
Dont dance around it.

e|-----------------------------------------------------------------|
B|-----3-------3-------3-------3-------3-------3-------3-------3---|
G|-----2p0-----2p0-----2p0-----2p0-----2p0-----2p0-----2p0-----2p0-|
D|-----------------------------------------------------------------|
A|-----------------------------------------------------------------|
E|-3-3-----3-3-----3-3-----3-3-----0-0-----0-0-----0-0-----0-0-----|
I need to hear this I chose you long ago.

e|-----------------------------------------------------------------|
B|-----3-------3-------3-------3-------3-------3-------3-------3---|
G|-----2p0-----2p0-----2p0-----2p0-----2p0-----2p0-----2p0-----2p0-|
D|-----------------------------------------------------------------|
A|-----------------------------------------------------------------|
E|-3-3-----3-3-----3-3-----3-3-----0-0-----0-0-----0-0-----0-0-----|
Have you chosen me yet?

Pre-Chorus:
e|-----------------------------------------------------------------|
B|-----------------------------------------------------------------|
G|-----0-------0-------0-------0-------0-------0-------0-----------|
D|---0---0---0---0---0---0---0---0---0---0---0---0---0---0---------|
A|-3-------3-------5-------5-------3-------3-------5-------5-------|
E|-----------------------------------------------------------------|
Cause I'm starting to wear thin, find it harder to forgive everytime you
let us slip down you list of priorities.

Chorus: Strum (DD UUDUx2 for most chords!)

G      D/F# Em7                  Cadd9
 I'm waiting, for you to finally say,
                          Dsus4/F#
 You are here and here to stay.
G        D/F# Em7                    Cadd9
 But darling,  if you know that it's through
                              Dsus4/F#
You can't keep doing what you do. It's time to let go of you.

e|-----------------------------------------------------------------|
B|-----3-------3-------3-------3-------3-------3-------3-------3---|
G|-----2p0-----2p0-----2p0-----2p0-----2p0-----2p0-----2p0-----2p0-|
D|-----------------------------------------------------------------|
A|-----------------------------------------------------------------|
E|-3-3-----3-3-----3-3-----3-3-----0-0-----0-0-----0-0-----0-0-----|
Please don't take this wrong, you know I want you.

e|-----------------------------------------------------------------|
B|-----3-------3-------3-------3-----------------------------------|
G|-----2p0-----2p0-----2p0-----2p0---------------------------------|
D|-----------------------------------------------------------------|
A|-----------------------------------------------------------------|
E|-3-3-----3-3-----3-3-----3-3-----0-------------------------------|
But don't think I won't move on.


Pre-Chorus:
e|-----------------------------------------------------------------|
B|-----------------------------------------------------------------|
G|-----0-------0-------0-------0-------0-------0-------0-----------|
D|---0---0---0---0---0---0---0---0---0---0---0---0---0---0---------|
A|-3-------3-------5-------5-------3-------3-------5-------5-------|
E|-----------------------------------------------------------------|
Cause I'm starting to wear thin, find it harder to forgive everytime you
let us slip down you list of priorities.

Chorus: Strum

G      D/F# Em7                  Cadd9
 I'm waiting, for you to finally say,
                          Dsus4/F#
 You are here and here to stay.
G        D/F# Em7                    Cadd9
 But darling,  if you know that it's through
                              Dsus4/F#
You can't keep doing what you do. Is it time to let go of

Bridge:Strum
Am               Dsus4/F#
You once whispered words to me
              G     Dsus4/F#          Em7             Cadd9
Wondering if anybody loved each other like we do

Chorus: Strum
G      D/F# Em7                  Cadd9
 I'm waiting, for you to finally say,
                          Dsus4/F#
 You are here and here to stay.
G        D/F# Em7                    Cadd9
 But darling,  if you know that it's through
                              Dsus4/F#
You can't keep doing what you do. Is it time to let go of you.

Outro:
e|-----------------------------------------------------------------|
B|-----3-------3-------3-------3-------3-------3-------3-------3---|
G|-----2p0-----2p0-----2p0-----2p0-----2p0-----2p0-----2p0-----2p0-|
D|-----------------------------------------------------------------|
A|-----------------------------------------------------------------|
E|-3-3-----3-3-----3-3-----3-3-----0-0-----0-0-----0-0-----0-0-----|
Time to let go of you......time to let go of you

e|--------------------------------------------------------------------|
B|-----3-------3-------3-------3-------3-------3-------3-------3------|
G|-----2p0-----2p0-----2p0-----2p0-----2p0-----2p0-----2p0-----2p0----|
D|--------------------------------------------------------------------|
A|--------------------------------------------------------------------|
E|-3-3-----3-3-----3-3-----3-3-----0-0-----0-0-----0-0-----0-0-----3--|
Oooooooooh.


*In the chorus the change between D/F# (Dsus4/F#!) and Em7 is really
 quick...you don't even really need to play the D/F# you could go straight
 to Em7.

*****************************************************************************
----------------------------------------------------------------------------
               17.  STAY JUST A LITTLE- Kina Grannis
----------------------------------------------------------------------------

This is for the album version of the song, youtube version is slightly
 different. 
Tuning: Capo 2

Chords Used:
C        x32010(when I write >2 i mean slide the whole C shape up 2 frets!)
G*       320000
Dsus2/F# 200230
G        320033
Em       022000

Intro:
   C                          G*
e|-0---------------------------------------------------------------|
B|---1---3------0--------------------0--------------0--------------|
G|----------0------0---2--0--0-------------------------------------|
D|-------------------------------0------0---0---0------0---0-------|
A|-3---3------3------3---------------------------------------------|
E|-----------------------------3---3------3---3---3------3---------|
   
   C                           Dsus2/F#
e|-0---------------------------------------------------------------|
B|---1---3------0------------3-------3-----------------------------|
G|----------0------0---2--0--------2----2--------------------------|
D|-------------------------------0------------0--------------------|
A|-3---3------3------3---------------------------------------------|
E|-----------------------------3------------3---3------------------|

Verse:
  C                            G*
e|-----------------------------------------------------------------|
B|-------1-------------1-------------0-------------------0---------|
G|---0-----0---0---0-----0---0---0-------0---0---0-----------0-----|
D|-----------------------------------------------------------------|
A|-3---3-----3---3---3-----3---------------------------------------|
E|-----------------------------3---3-------3---3---3---3---3-------|
I heard it in your voice when your love died.

   C                           G           Dsus2/F#
e|-----------------------------------------------------------------|
B|-------1-------------1-------------3-----------------------------|
G|---0-----0---0---0-----0---0---0-------0-------------------------|
D|-----------------------------------------------------------------|
A|-3---3-----3---3---3-----3---------------------------------------|
E|-----------------------------3---3-------2-----------------------|
On a telephone connection stretching miles and miles of wire.

   C                           G           Dsus2/F#
e|-----------------------------------------------------------------|
B|-------1-------------1-------------3-----------------------------|
G|---0-----0---0---0-----0---0---0-------0-------------------------|
D|-----------------------------------------------------------------|
A|-3---3-----3---3---3-----3---------------------------------------|
E|-----------------------------3---3-------2-----------------------|
You said it was over and then cried and cried

   C                           >2           
e|-----------------------------------------------------------------|
B|-------1-------------1-------------3-----------------------------|
G|---0-----0---0---0-----0---0---0-----0---0-----------------------|
D|-----------------------------------------------------------------|
A|-3---3-----3---3---3-----3---5---5-----5---5---------------------|
E|-----------------------------------------------------------------|
You were gone before I said goodbye.

Chorus:
  C              Em            G*
e|-----------------------------------------------------------------|
B|-------1-------------0-------------0-------------------0---------|
G|---0-----0---0---0-----0---0---0-------0---0---0-----------0-----|
D|-----------------------------------------------------------------|
A|-3---3-----3-----------------------------------------------------|
E|---------------0---0-----0---3---3-------3---3---3---3---3-------|
Would you stay just a little, my love?

  C              Em            Dsus2/F#
e|-----------------------------------------------------------------|
B|-------1-------------0-------------3-------------------3---------|
G|---0-----0---0---0-----0---0---2-------2---2---2-----------2-----|
D|-----------------------------------------------------------------|
A|-3---3-----3-----------------------------------------------------|
E|---------------0---0-----0---2---3-------2---2---2---2---2-------|
Would you sway just a little, my love?

  C              Em            Dsus2/F#    Em
e|-----------------------------------------------------------------|
B|-------1-------------0-------------3-----------------------------|
G|---0-----0---0---0-----0---0---2-------2-------------------------|
D|-----------------------------------------------------------------|
A|-3---3-----3-----------------------------------------------------|
E|---------------0---0-----0---2---3-------0-----------------------|
Because the hole in the middle of my heart needs filling up

   C                           >2           
e|-----------------------------------------------------------------|
B|-------1-------------1-------------3-----------------------------|
G|---0-----0---0---0-----0---0---0-----0---0-----------------------|
D|-----------------------------------------------------------------|
A|-3---3-----3---3---3-----3---5---5-----5---5---------------------|
E|-----------------------------------------------------------------|
If you stay just a little, that's enough.

Verse: (use above picking pattern, im just going to write the chords.)
     C                          G*
 It kills me as I lay awake at night
    C                                G                  Dsus2/F#
 Remembering the last kiss that we shared doesn't feel right
    C                        G        Dsus2/F#
 Is it impossible for me to win this fight?
      C                          >2
 Keep you a little longer in my life.


Chorus: (same as above!)
             C          Em        G*
 Would you stay just a little, my love?
             C          Em         Dsus2/F#
 Would you sway just a little, my love?
             C           Em           Dsus2/F#            Em
 Because the hole in the middle of my heart needs filling up
           C                         >2
 If you stay just a little, that's enough.

Bridge: (same as intro)
   C                          G*
e|-0---------------------------------------------------------------|
B|---1---3------0--------------------0--------------0--------------|
G|----------0------0---2--0--0-------------------------------------|
D|-------------------------------0------0---0---0------0---0-------|
A|-3---3------3------3---------------------------------------------|
E|-----------------------------3---3------3---3---3------3---------|
   
   C                           Dsus2/F#
e|-0---------------------------------------------------------------|
B|---1---3------0------------3-------3-----------------------------|
G|----------0------0---2--0--------2----2--------------------------|
D|-------------------------------0------------0--------------------|
A|-3---3------3------3---------------------------------------------|
E|-----------------------------3------------3---3------------------|

Chorus: 
   C              Em            Dsus2/F#    Em
e|-----------------------------------------------------------------|
B|-------1-------------0-------------3-----------------------------|
G|---0-----0---0---0-----0---0---2-------2-------------------------|
D|-----------------------------------------------------------------|
A|-3---3-----3-----------------------------------------------------|
E|---------------0---0-----0---2---3-------0-----------------------|
Because the hole in the middle of my heart needs filling up.         
 
  C              Em            Dsus2/F#
e|-----------------------------------------------------------------|
B|-------1-------------0-------------3-------------------3---------|
G|---0-----0---0---0-----0---0---2-------2---2---2-----------2-----|
D|-----------------------------------------------------------------|
A|-3---3-----3-----------------------------------------------------|
E|---------------0---0-----0---2---3-------2---2---2---2---2-------|
If you stay just a little

  C              Em            Dsus2/F#
e|-----------------------------------------------------------------|
B|-------1-------------0-------------3-------------------3---------|
G|---0-----0---0---0-----0---0---2-------2---2---2-----------2-----|
D|-----------------------------------------------------------------|
A|-3---3-----3-----------------------------------------------------|
E|---------------0---0-----0---2---3-------2---2---2---2---2-------|
If you stay just a little, that's enough.

Outro:
   G*
e|-----------------------------------------------------------------|
B|-0-----0-------1------1------0-----0-----------------------------|
G|---0------0-------0------0-----0-----0---0-----------------------|
D|-----------------------------------------------------------------|
A|-----------------------------------------------------------------|
E|-----3-------3------3------3-----3-----3---3---------------------|

*****************************************************************************
----------------------------------------------------------------------------
                        18. BACK TO US - Kina Grannis
----------------------------------------------------------------------------


Capo 5

Chords Used:
D     xx0232
G     320033
Em7   022033
A     x02220
Bm    x24432
Asus4 x02200

Intro: D G Em7 A

Verse 1:
D                 G                      
 All the birds are singing in the whisper winds
Em7          A
 Everybody's listening
D               G                       
 And the sun is shining like today won't end
Em7              A
 Nothing here is missing
D        G            Em7           A
 Looking over looking under looking through
D        G          Em7               A
 What we find every time we do what we do

Chorus:
        D   G
 And we laugh,
        Em7  A
 And we cry,
        D        G
 And we live our lives,
         Em7                    A
 And we love and we love and we love,
                      D  G Em7 A
 And it comes back to us.


Verse 2:
D                   G
 We carve into the tree our history of love
Em7            A
 dreams of ever after
D              G
 We can sit beneath the bows and trace the lines
Em7              A
 and add another chapter
D        G                Em7             A
 Looking outside, looking inside, looking away
D        G                  Em7                      A
 what we find each and every time you say that you'll stay.

Chorus:
        D   G
 And we laugh,
        Em7  A
 And we cry,
        D        G
 And we live our lives,
         Em7                    A
 And we love and we love and we love,
                      D  G Em7 A
 And it comes back to us.


Bridge:
G        C              Bm       G        Cadd9         Asus4  A
 In the evening when we turn in, will you look back with me?

Chorus: (palm mute a little!)
        D   G
 And we laugh,
        Em7  A
 And we cry,
        D        G
 And we live our lives,
         Em7                    A
 And we love and we love and we love,
 
Chorus: (back to reagular strumming)       
        D   G
 And we laugh,
        Em7  A
 And we cry,
        D        G
 And we live our lives,
         Em7                    A
 And we love and we love and we love,
                      D  G Em7 A (repeat til fade)
 And it comes back to us.

*****************************************************************************
----------------------------------------------------------------------------
                    19.  MAKE ME - Kina Grannis
----------------------------------------------------------------------------


Tuning: Capo 6

Chords Used:
C    x32010
C/B  x20010
Am7  x02010
F*   x33010
F    x33210
G    320000

*this F like chord is used in the intro and verses, it is a really easy 
transition from Am7, and it sounds exactly like the record.

Intro:
   C               C/B             Am7             F*
e|-----------------------------------------------------------------|
B|---------------------------------1-------1-------1-------1-------|
G|-0-------0-------0-------0---------0---0---0---0---0---0---------|
D|---2---2---2---2---0---0---0---0-----2-------2-------3-----------|
A|-----3-------3-------2-------2-----------------------------------|
E|-----------------------------------------------------------------|


Verse 1:
Rainbows....
   C               C/B             Am7             F*
e|-----------------------------------------------------------------|
B|---------------------------------1-------1-------1-------1-------|
G|-0-------0-------0-------0---------0---0---0---0---0---0---0---0-| x2
D|---2---2---2---2---0---0---0---0-----2-------2-------3-------3---|
A|-----3-------3-------2-------2-----------------------------------|
E|-----------------------------------------------------------------|


Chorus:
If you want to smile with me....
   C               C/B             Am7             F        G
e|-----------------------------------------------------------------|
B|-------1---------------1----------------1--------1-----1-0-------|
G|-0-------0---0---0-------0---0---0--------0---0----2-------0---0-| x3
D|---2---------------0---------------2-----------------------------|
A|-3---3-----3-----2---2-----2-----0---0------0----3---3-----------|
E|---------------------------------------------------------3---3---|


Verse 2:
I've been searching dreary weather....
   C               C/B             Am7             F*
e|-----------------------------------------------------------------|
B|---------------------------------1-------1-------1-------1-------|
G|-0-------0-------0-------0---------0---0---0---0---0---0---0---0-| x2
D|---2---2---2---2---0---0---0---0-----2-------2-------3-------3---|
A|-----3-------3-------2-------2-----------------------------------|
E|-----------------------------------------------------------------|


Chorus:
If you want to smile with me....
   C               C/B             Am7             F        G
e|-----------------------------------------------------------------|
B|-------1---------------1----------------1--------1-----1-0-------|
G|-0-------0---0---0-------0---0---0--------0---0----2-------0---0-| x3
D|---2---------------0---------------2-----------------------------|
A|-3---3-----3-----2---2-----2-----0---0------0----3---3-----------|
E|---------------------------------------------------------3---3---|


Bridge:
Oh, you cant change the hurt you've done....
   F*            G              C         C/B      Am7   
e|-----------------------------------------------------------------|
B|-1-----1--------------0------------1--------1----------1---------|
G|---0-----0---0--0-------0---0--0--------0--------0---------------| x2
D|------------------0--------------2---2----0---0----2-----2---2---|
A|-3---3-----3-------------------3---0----2---2----0---0-----0-----|
E|----------------3---3-----3--------------------------------------|

Make me forget...
   F              C        C/B     
e|----------------------------------|
B|-1-----1------------1--------1----|
G|---0-----0---0--0--------0--------| x3
D|------------------2---2----2---2--|
A|-3---3-----3----3---0----2---2----|
E|----------------------------------|

   Am7             F       G   
e|---------------------------------|
B|-1-----1---------1-----1-0-------|
G|---0-----0---0-----2-------0---0-| 
D|---------------------------------|
A|-0---0-----0-----3---3-----------|
E|-------------------------3---3---|


Chorus:
If you want to smile with me....
   C               C/B             Am7             F        G
e|-----------------------------------------------------------------|
B|-------1---------------1----------------1--------1-----1-0-------|
G|-0-------0---0---0-------0---0---0--------0---0----2-------0---0-| x2
D|---2---------------0---------------2-----------------------------|
A|-3---3-----3-----2---2-----2-----0---0------0----3---3-----------|
E|---------------------------------------------------------3---3---|

End on
e|---|
B|---|
G|-0-|
D|---|
A|-3-|
E|---|
	


Enjoy! Comment, rate etc! :)
Добавлено: 30.06.2013
Другие материалы по этой песне:
  • Аккорды и текст

Страница создана 30.06.2013
http://primanota.ru/kina-grannis/stairwells-deluxe-chords.htm
Привет, Гость.
Предлагаем пройти революционный курс по гитаре.
Подарок от PrimaNota.Ru, забирай!