PrimaNota.ru - самый крупный в мире бесплатный архив песенных текстов, аккордов, табулатур и нот


Kina Grannis - Breathe Honesty - текст песни, таба, видео

Регистрация Запомнить меня
Войти через:  Facebook Google Twitter Vk Yandex Mail.ru

Kina Grannis - Breathe Honesty - текст песни, таба, видео

Печатать
Просмотров: 78
Intro:

|------------------------------------------|
|------------------------------------------|
|------0-------0-----0-----0-------0-----0-|
|----4---4---4-----4-----4---4---4-----4---|
|--2---------------------------0-----0-----|
|----------0-----0-----3-------------------|

|---------------------------------|
|---------------------------------|
|------0-------0-----0-----0------|
|----4---4---4-----4-----4---4----|
|--2---------------------------0--|
|----------0-----0-----3----------|

Verses:

I'm moving gently tender steps I'm
|-----------------------|
|-----------------------|
|------0-------0-----0--|
|----4---4---4-----4----|
|0-2--------------------|
|----------0-----0------|

pulling weight upon my
|-----------------------|
|-----------------------|
|------0-------0-----0--|
|----4---4---4-----4----|
|----------0-----0------|
|--3--------------------|

back and I can see it's not much
|-----------------------|
|-----------------------|
|------0-------0-----0--|
|----4---4---4-----4----|
|--2--------------------|
|----------0-----0------|

longer until
|-----------------------|
|-----------------------|
|------0-------0-----0--|
|----4---4---4-----4----|
|----------0-----0------|
|--3--------------------|

This weight          becomes a burden
|----------------------------------------------|
|----------------------------------------------|
|------0-------0-----0--------0-------0-----0--|
|----4---4---4-----4--------4---4---4-----4----|
|--2------------------------------0-----0------|
|----------0-----0--------3--------------------|

making me stand
|-----------------------|
|-----------------------|
|------0-------0-----0--|
|----4---4---4-----4----|
|--2--------------------|
|----------0-----0------|

still
|-------------|
|-------------|
|------0------|
|----4---4----|
|----------0--|
|--3----------|


Chords used:
 B5        Em        G*       A*      F#m     Gsus2     A         G
|--x---  |--x---  |--x---  |--x---  |--0---  |--0---  |--0---  |--3---|
|--0---  |--0---  |--0---  |--0---  |--3---  |--3---  |--2---  |--3---|
|--0---  |--0---  |--0---  |--0---  |--0---  |--0---  |--2---  |--0---|
|--4---  |--2---  |--4---  |--4---  |--0---  |--0---  |--2---  |--0---|
|--2---  |--2---  |--0---  |--0---  |--0---  |--0---  |--0---  |--2---|
|--0---  |--0---  |--3---  |--0---  |--2---  |--3---  |--0---  |--3---|

B5 Em G* A* x2

B5    Em               G*
And I can see another light on,
        A*                 B5
moving faster through this room
         Em                G*  A*
And I am waiting for your company
B5  Em     G*   A*        B5     Em     G* A*
You say im not alone well better let me see

(Chorus)

Em  F#m        Gsus2
You are what I dream
      A                            Em
I'm breathing you you're breathing me
            F#m            Gsus2
It's better now that I can see
A
You breathing honesty


B5 Em G* A* x2

B5    Em           G* A*
A conversation had, a void of silence grew
B5    Em                    G*  A*
An overbearing aching in my heart led me to
B5    Em      G*      A*
Speak out my words, I trembled
B5      Em     G* A*
wishing that I knew

(Chorus)

Em G B5 A x2

Bridge:
Em  G      B5         A       Em       G    B5 A
And it was worth the silence worth the tears
      Em         G      B5   A         Em G B5 A
That brought me here now to face these fears
Em                  F#m
And now im stronger so are you
     Gsus2                A
Here at this place we've gotten to

           You are   What I dream
|-----------------------------------------------|
|------------------------------0--0--------3--2-|
|------0--0--------2--2------0----0------2----2-|
|----4----4------0----0-------------------------|
|------------------------------------0-2------0-|
|--0------0--0-2------2--2-3------3-------------|

Better now that I can see
|------------------------------------|
|------------------------------0--0--|
|------0--0--------2--2------0----0--|
|----4----4------0----0--------------|
|------------------------------------|
|--0------0--0-2------2--2-3------3--|

(vocals only)
You breathe honesty

|------------------------------------------|
|------------------------------------------|
|------0-------0-----0-----0-------0-----0-|
|----4---4---4-----4-----4---4---4-----4---|
|--2---------------------------0-----0-----|
|----------0-----0-----3-------------------|

|---------------------------------|
|------------------------0--0---2-|
|------0-------0-----0---0--0---2-|
|----4---4---4-----4--------------|
|--2----------------------------0-|
|----------0-----0-------3--3-----|

*= different version of chord used
For video: http://www.youtube.com/watch?v=KPkvYFyxqGE
Chord namer: http://jguitar.com/chordname
Добавлено: 13.11.2013
Другие материалы по этой песне:
  • Аккорды и текст

Страница создана 13.11.2013
http://primanota.ru/kina-grannis/breathe-honesty-chords.htm
Привет, Гость.
Предлагаем пройти революционный курс по гитаре.
Подарок от PrimaNota.Ru, забирай!