PrimaNota.ru - самый крупный в мире бесплатный архив песенных текстов, аккордов, табулатур и нот


Kimura Kaela - Real Life Real Heart - таба, видео

Регистрация Запомнить меня
Войти через:  Facebook Google Twitter Vk Yandex Mail.ru

Kimura Kaela - Real Life Real Heart - таба, видео

Печатать
Просмотров: 90
Real Life, Real Heart (rirura riruha)


kimura kaela


TRANSCRIBED BY RUDY GUZMAN


guzman_84@hotmail.com


            note:
*****tune down 1 step down***** 
you can do it on EADGBe but you need to do the math on the numbers.

                                                                              
eb:----------------------------------------------------------------------------|
Bb:----------------------------------------------------------------------------|
Gb:-10--10--10--10-10--9---9---9---9--9---8---8---8---8--8---9---9---9---9--9--|
Db:-10--10--10--10-10--10--10--10--10-10--10--10--10--10-10--10--10--10--10-10-|
Ab:-8---8---8---8--8---8---8---8---8--8---8---8---8---8--8---8---8---8---8--8--|
Eb:----------------------------------------------------------------------------|

eb:----------------------------------------------------------------------------|
Bb:----------------------------------------------------------------------------|
Gb:-10--10--10--10-10--9---9---9---9--9---8---8---8---8--8---9---9---9---9--9--|
Db:-10--10--10--10-10--10--10--10--10-10--10--10--10--10-10--10--10--10--10-10-|
Ab:-8---8---8---8--8---8---8---8---8--8---8---8---8---8--8---8---8---8---8--8--|
Eb:----------------------------------------------------------------------------|

            Watashi no               omamori      Ohana          maagaretto
eb:----------------------------------------------------------------------------|
Bb:----------------------------------------------------------------------------|
Gb:-10--10--10--10-10--9---9---9---9--9---10--10--10--10-10--9---9---9---9--9--|
Db:-10--10--10--10-10--10--10--10--10-10--11--11--11--11-11--10--10--10--10-10-|
Ab:-8---8---8---8--8---8---8---8---8--8---11--11--11--11-11--10--10--10--10-10-|
Eb:---------------------------------------9---9---9---9--9---8---8---8---8--8--|

         Chiisana                  watashi o        yasashisa de
eb:----------------------------------------------------------------------------|
Bb:----------------------------------------------------------------------------|
Gb:-10--10--10--10-10--9---9---9---9--9---10--10--10--10-10--12--12--12--12-12-|
Db:-10--10--10--10-10--10--10--10--10-10--11--11--11--11-11--13--13--13--13-13-|
Ab:-8---8---8---8--8---8---8---8---8--8---11--11--11--11-11--13--13--13--13-13-|
Eb:---------------------------------------9---9---9---9--9---11--11--11--11-11-|

     Tsutsumu 
eb:--------------------------------------------|
Bb:--------------------------------------------|
Gb:-7--7-7--9---9--9---11---10/(8)-8/(6)-6/(4)-|
Db:-8--8-8--10--10-10--12---x---x--x--x--x--x--|
Ab:-8--8-8--10--10-10--12---8/-(6)-6/(4)-4/(2)-|
Eb:-6--6-6--8---8--8---10----------------------|

    hito ga 
eb:-------------------------------------------|
Bb:-------------------------------------------|
Gb:-7--7-7--9---9--9---11---10/(13)-13/(8)--8-|
Db:-8--8-8--10--10-10--12---x---x----x--x---x-|
Ab:-8--8-8--10--10-10--12---8/-(11)-11/(6)--6-|
Eb:-6--6-6--8---8--8---10---------------------|

    sukina 
eb:------------------------------------------------|
Bb:------------------------------------------------|
Gb:-7--7-7--9---9--9---11--8-8/(10)-10/(13)-13/(8)-|
Db:-8--8-8--10--10-10--12--x-x--x---x---x---x---x--|
Ab:-8--8-8--10--10-10--12--6-6/(8)--8/-(11)-11/(6)-|
Eb:-6--6-6--8---8--8---10--------------------------|

    hana de
eb:-----------------------------------------|
Bb:-----------------------------------------|
Gb:-7--7-7--9---9--9------10-10-10-10-10-10-|
Db:-8--8-8--10--10-10--10-10-10-10-10-10-10-|
Ab:-8--8-8--10--10-10--8--8--8--8--8--8--8--|
Eb:-6--6-6--8---8--8------------------------|


          Tomadoi ga                otozureru            Toki ni kagitte
eb:----------------------------------------------------------------------------|
Bb:----------------------------------------------------------------------------|
Gb:-10--10--10--10-10--9---9---9---9--9---10--10--10--10-10--9---9---9---9--9--|
Db:-10--10--10--10-10--10--10--10--10-10--11--11--11--11-11--10--10--10--10-10-|
Ab:-8---8---8---8--8---8---8---8---8--8---11--11--11--11-11--10--10--10--10-10-|
Eb:---------------------------------------9---9---9---9--9---8---8---8---8--8--|

       Jibun o                    nazedaka                kurushimeteru
eb:----------------------------------------------------------------------------|
Bb:----------------------------------------------------------------------------|
Gb:-10--10--10--10-10--9---9---9---9--9---10--10--10--10-10--12--12--12--12-12-|
Db:-10--10--10--10-10--10--10--10--10-10--11--11--11--11-11--13--13--13--13-13-|
Ab:-8---8---8---8--8---8---8---8---8--8---11--11--11--11-11--13--13--13--13-13-|
Eb:---------------------------------------9---9---9---9--9---11--11--11--11-11-|

       Sonna 
eb:--------------------------------------------|
Bb:--------------------------------------------|
Gb:-7--7-7--9---9--9---11---10/(8)-8/(6)-6/(4)-|
Db:-8--8-8--10--10-10--12---x---x--x--x--x--x--|
Ab:-8--8-8--10--10-10--12---8/-(6)-6/(4)-4/(2)-|
Eb:-6--6-6--8---8--8---10----------------------|

       toki koso
eb:-------------------------------------------|
Bb:-------------------------------------------|
Gb:-7--7-7--9---9--9---11---10/(13)-13/(8)--8-|
Db:-8--8-8--10--10-10--12---x---x----x--x---x-|
Ab:-8--8-8--10--10-10--12---8/-(11)-11/(6)--6-|
Eb:-6--6-6--8---8--8---10---------------------|

      Yasashisa 
eb:------------------------------------------------|
Bb:------------------------------------------------|
Gb:-7--7-7--9---9--9---11--8-8/(10)-10/(13)-13/(8)-|
Db:-8--8-8--10--10-10--12--x-x--x---x---x---x---x--|
Ab:-8--8-8--10--10-10--12--6-6/(8)--8/-(11)-11/(6)-|
Eb:-6--6-6--8---8--8---10--------------------------|

       agetaino
eb:-----------------------------------------|
Bb:-----------------------------------------|
Gb:-7--7-7--9---9--9------10-10-10-10-10-10-|
Db:-8--8-8--10--10-10--10-10-10-10-10-10-10-|
Ab:-8--8-8--10--10-10--8--8--8--8--8--8--8--|
Eb:-6--6-6--8---8--8------------------------|

   chorus:
    Wasurenaide mitsumeru koto o
eb:-1--1--1-1-1-1-----------------------------------|
Bb:-1--1--1-1-1-1--5-5-5-5-5-5-5-5--3-3-3-3-3-3-3-3-|
Gb:-2--2--2-2-2-2--5-5-5-5-5-5-5-5--3-3-3-3-3-3-3-3-|
Db:-3--3--3-3-3-3--5-5-5-5-5-5-5-5--3-3-3-3-3-3-3-3-|
Ab:-3--3--3-3-3-3--3-3-3-3-3-3-3-3--1-1-1-1-1-1-1-1-|
Eb:-1--1--1-1-1-1-----------------------------------|

     Ima dekirudeshoo?
eb:----------------2-2-2-2-2-2-2-----------------------------------|
Bb:-2-2-2-2-2-2-2--3-3-3-3-3-3-3--3-3-3-3-3-3-3-3--5-5-------5-----|
Gb:-2-2-2-2-2-2-2--2-2-2-2-2-2-2--3-3-3-3-3-3-3-3--5-5-----5---5---|
Db:-2-2-2-2-2-2-2--0-0-0-0-0-0-0--3-3-3-3-3-3-3-3--5-5---5-------5-|
Ab:-0-0-0-0-0-0-0-----------------1-1-1-1-1-1-1-1--3-3-3-----------|
Eb:----------------------------------------------------------------|

     Imashikanai kono jikan o
eb:-1--1--1-1-1-1-----------------------------------|
Bb:-1--1--1-1-1-1--5-5-5-5-5-5-5-5--3-3-3-3-3-3-3-3-|
Gb:-2--2--2-2-2-2--5-5-5-5-5-5-5-5--3-3-3-3-3-3-3-3-|
Db:-3--3--3-3-3-3--5-5-5-5-5-5-5-5--3-3-3-3-3-3-3-3-|
Ab:-3--3--3-3-3-3--3-3-3-3-3-3-3-3--1-1-1-1-1-1-1-1-|
Eb:-1--1--1-1-1-1-----------------------------------|

    Anata shidai de
eb:----------------2-2-2-2-2-2-2-|
Bb:-2-2-2-2-2-2-2--3-3-3-3-3-3-3-|
Gb:-2-2-2-2-2-2-2--2-2-2-2-2-2-2-|
Db:-2-2-2-2-2-2-2--0-0-0-0-0-0-0-|
Ab:-0-0-0-0-0-0-0----------------|
Eb:------------------------------|

     Real life nagareyuku....     x 3
eb:-----------------------------------|
Bb:-3--3-3-3--5--5-5-5----------------|
Gb:-3--3-3-3--5--5-5-5--7--7-7--7-7-7-|
Db:-3--3-3-3--5--5-5-5--7--7-7--7-7-7-|
Ab:-1--1-1-1--3--3-3-3--5--5-5--5-5-5-|
Eb:-----------------------------------|

eb:-----------------------------------|
Bb:-3--3-3-3--5--5-5-5----------------|
Gb:-3--3-3-3--5--5-5-5--7--7-7-7-7-7-7|
Db:-3--3-3-3--5--5-5-5--7--7-7-7-7-7-7|
Ab:-1--1-1-1--3--3-3-3--5--5-5-5-5-5-5|
Eb:-----------------------------------|

                                       x3
eb:--------------------------------------|
Bb:--------------------------------------|
Gb:-10--10-10-10-10----------------------|
Db:-10--10-10-10-10--8--6--8--9--8--6--3-|
Ab:-8---8--8--8--8---8--6--8--9--8--6--3-|
Eb:------------------6--4--6--7--6--4--1-|


eb:---------------------------------------|
Bb:---------------------------------------|
Gb:-10--10-10-10-10--------------------10-|
Db:-10--10-10-10-10--8--6--8--9--8--6--10-|
Ab:-8---8--8--8--8---8--6--8--9--8--6--8--|
Eb:------------------6--4--6--7--6--4-----|


     Watashi no                           omamori
eb:----------------------------------------------------------------------------|
Bb:----------------------------------------------------------------------------|
Gb:-10--10--10--10-10--9---9---9---9--9---10--10--10--10-10--9---9---9---9--9--|
Db:-10--10--10--10-10--10--10--10--10-10--11--11--11--11-11--10--10--10--10-10-|
Ab:-8---8---8---8--8---8---8---8---8--8---11--11--11--11-11--10--10--10--10-10-|
Eb:---------------------------------------9---9---9---9--9---8---8---8---8--8--|

eb:----------------------------------------------------------------------------|
Bb:----------------------------------------------------------------------------|
Gb:-10--10--10--10-10--9---9---9---9--9---10--10--10--10-10--12--12--12--12-12-|
Db:-10--10--10--10-10--10--10--10--10-10--11--11--11--11-11--13--13--13--13-13-|
Ab:-8---8---8---8--8---8---8---8---8--8---11--11--11--11-11--13--13--13--13-13-|
Eb:---------------------------------------9---9---9---9--9---11--11--11--11-11-|


eb:--------------------------------------------|
Bb:--------------------------------------------|
Gb:-7--7-7--9---9--9---11---10/(8)-8/(6)-6/(4)-|
Db:-8--8-8--10--10-10--12---x---x--x--x--x--x--|
Ab:-8--8-8--10--10-10--12---8/-(6)-6/(4)-4/(2)-|
Eb:-6--6-6--8---8--8---10----------------------|

eb:-------------------------------------------|
Bb:-------------------------------------------|
Gb:-7--7-7--9---9--9---11---10/(13)-13/(8)--8-|
Db:-8--8-8--10--10-10--12---x---x----x--x---x-|
Ab:-8--8-8--10--10-10--12---8/-(11)-11/(6)--6-|
Eb:-6--6-6--8---8--8---10---------------------|

eb:------------------------------------------------|
Bb:------------------------------------------------|
Gb:-7--7-7--9---9--9---11--8-8/(10)-10/(13)-13/(8)-|
Db:-8--8-8--10--10-10--12--x-x--x---x---x---x---x--|
Ab:-8--8-8--10--10-10--12--6-6/(8)--8/-(11)-11/(6)-|
Eb:-6--6-6--8---8--8---10--------------------------|

eb:-----------------------------------------|
Bb:-----------------------------------------|
Gb:-7--7-7--9---9--9------10-10-10-10-10-10-|
Db:-8--8-8--10--10-10--10-10-10-10-10-10-10-|
Ab:-8--8-8--10--10-10--8--8--8--8--8--8--8--|
Eb:-6--6-6--8---8--8------------------------|


   chorus
eb:-1--1--1-1-1-1-----------------------------------|
Bb:-1--1--1-1-1-1--5-5-5-5-5-5-5-5--3-3-3-3-3-3-3-3-|
Gb:-2--2--2-2-2-2--5-5-5-5-5-5-5-5--3-3-3-3-3-3-3-3-|
Db:-3--3--3-3-3-3--5-5-5-5-5-5-5-5--3-3-3-3-3-3-3-3-|
Ab:-3--3--3-3-3-3--3-3-3-3-3-3-3-3--1-1-1-1-1-1-1-1-|
Eb:-1--1--1-1-1-1-----------------------------------|

eb:----------------2-2-2-2-2-2-2-----------------------------------|
Bb:-2-2-2-2-2-2-2--3-3-3-3-3-3-3--3-3-3-3-3-3-3-3--5-5-------5-----|
Gb:-2-2-2-2-2-2-2--2-2-2-2-2-2-2--3-3-3-3-3-3-3-3--5-5-----5---5---|
Db:-2-2-2-2-2-2-2--0-0-0-0-0-0-0--3-3-3-3-3-3-3-3--5-5---5-------5-|
Ab:-0-0-0-0-0-0-0-----------------1-1-1-1-1-1-1-1--3-3-3-----------|
Eb:----------------------------------------------------------------|

eb:-1--1--1-1-1-1-----------------------------------|
Bb:-1--1--1-1-1-1--5-5-5-5-5-5-5-5--3-3-3-3-3-3-3-3-|
Gb:-2--2--2-2-2-2--5-5-5-5-5-5-5-5--3-3-3-3-3-3-3-3-|
Db:-3--3--3-3-3-3--5-5-5-5-5-5-5-5--3-3-3-3-3-3-3-3-|
Ab:-3--3--3-3-3-3--3-3-3-3-3-3-3-3--1-1-1-1-1-1-1-1-|
Eb:-1--1--1-1-1-1-----------------------------------|

eb:----------------2-2-2-2-2-2-2-|
Bb:-2-2-2-2-2-2-2--3-3-3-3-3-3-3-|
Gb:-2-2-2-2-2-2-2--2-2-2-2-2-2-2-|
Db:-2-2-2-2-2-2-2--0-0-0-0-0-0-0-|
Ab:-0-0-0-0-0-0-0----------------|
Eb:------------------------------|

                                    x 3
eb:-----------------------------------|
Bb:-3--3-3-3--5--5-5-5----------------|
Gb:-3--3-3-3--5--5-5-5--7--7-7--7-7-7-|
Db:-3--3-3-3--5--5-5-5--7--7-7--7-7-7-|
Ab:-1--1-1-1--3--3-3-3--5--5-5--5-5-5-|
Eb:-----------------------------------|

eb:-----------------------------------|
Bb:-3--3-3-3--5--5-5-5----------------|
Gb:-3--3-3-3--5--5-5-5--7--7-7-7-7-7-7|
Db:-3--3-3-3--5--5-5-5--7--7-7-7-7-7-7|
Ab:-1--1-1-1--3--3-3-3--5--5-5-5-5-5-5|
Eb:-----------------------------------|

                                       x7
eb:--------------------------------------|
Bb:--------------------------------------|
Gb:-10--10-10-10-10----------------------|
Db:-10--10-10-10-10--8--6--8--9--8--6--3-|
Ab:-8---8--8--8--8---8--6--8--9--8--6--3-|
Eb:------------------6--4--6--7--6--4--1-|


eb:-----------------------------------|
Bb:-----------------------------------|
Gb:-10--10-10-10-10-------------------|
Db:-10--10-10-10-10--8--6--8--9--8--6-|
Ab:-8---8--8--8--8---8--6--8--9--8--6-|
Eb:------------------6--4--6--7--6--4-|

                    x 2
eb:------------------|
Bb:------------------|
Gb:------------------|
Db:-8--6--8--9--8--6-|
Ab:-8--6--8--9--8--6-|
Eb:-6--4--6--7--6--4-|


eb:---------------------------------------------|
Bb:---------------------------------------------|
Gb:-10\-----------------------------------------|
Db:-10\-----------------------------------------|
Ab:-8-\-----------------------------------------|
Eb:---------------------------------------------|


hillo son mex

26/04/09
Добавлено: 26.07.2012
Вам также может быть интересно:
Другие материалы по этой песне:
  • Аккорды и текст

Страница создана 26.07.2012
http://primanota.ru/kimura-kaela/real-life-real-heart-chords.htm
Привет, Гость.
Предлагаем пройти революционный курс по гитаре.
Подарок от PrimaNota.Ru, забирай!