PrimaNota.ru - самый крупный в мире бесплатный архив песенных текстов, аккордов, табулатур и нот


Kimura Kaela - Oh Pretty Women - таба, видео

Регистрация Запомнить меня
Войти через:  Facebook Google Twitter Vk Yandex Mail.ru

Kimura Kaela - Oh Pretty Women - таба, видео

Печатать
Просмотров: 72
oh pretty women


kimura kaela


TRANSCRIBED BY RUDY GUZMAN


guzman_84@hotmail.com




                     x2                          
e:--------------------|
B:--------------------|
G:-2-2-------4-4--2-2-|
D:-2-2--5-5--4-4--2-2-|
A:-0-0--5-5--2-2--0-0-|
E:------3-3-----------|

                                      x2
e:-------------------------------------|
B:-------------------------------------|
G:-----------------------------0-4-2-0-|
D:---------------2-2-2--5-5-5----------|
A:-0-0-0--4-4-4------------------------|
E:-------------------------------------|

                    x4
e:-------------------|
B:-------------------|
G:-------------4-2-0-|
D:--------2-5--------|
A:-0-0--4------------|
E:-------------------|


  verse                             x2
e:-----------------------------------|
B:-----3-----3-----3---3---3-----3---|
G:-----2-----2-----2---2---2-----2---|
D:-0-0---0-0---0-0---0---0---0-0---0-|
A:-----------------------------------|
E:-----------------------------------|

e:-----------------------------|
B:-----------------------------|
G:-----------------------------|
D:-----5-----5-----5---5---5---|
A:-----5-----5-----5---5---5---|
E:-3-3---3-3---3-3---3---3---3-|

                                   x2
e:-----------------------------------|
B:-----------------------------------|
G:-----2-----2-----2---2---2-----2---|
D:-----2-----2-----2---2---2-----2---|
A:-0-0---0-0---0-0---0---0---0-0---0-|
E:-----------------------------------|

                                      x4
e:-------------------------------------|
B:-------------------------------------|
G:-----------------------------0-4-2-0-|
D:---------------2-2-2--5-5-5----------|
A:-0-0-0--4-4-4------------------------|
E:-------------------------------------|


e:-----------------------------------------------------------|
B:-------3-----3----------------------3-----3----------------|
G:-------2-----2-------4-----4--------2-----2--------4-----4-|
D:-0-0-0---0-0---------4-----4--0-0-0---0-0----------4-----4-|
A:---------------2-2-2---2-2-------------------2-2-2---2-2---|
E:-----------------------------------------------------------|


e:-----------------------------------|
B:-----------------------------------|
G:-----------------------------------|
D:-------5-----5---------5-----5-----|
A:-------5-----5---------5-----5-----|
E:-3-3-3---3-3---3-3-3-3---3-3---3-3-|

e:-------------------------------------------|
B:-------------------------------------------|
G:-------2-----2-------2-----2-------2-----2-|
D:-------2-----2-------2-----2-------2-----2-|
A:-0-0-0---0-0---0-0-0---0-0---0-0-0---0-0---|
E:-------------------------------------------|

                    x4
e:-------------------|
B:-------------------|
G:-------------4-2-0-|
D:--------2-5--------|
A:-0-0--4------------|
E:-------------------|

  Pretty woman stop a while...
e:------------------------------------------------------------|
B:----------------------------------------------3-3-3-3-3-3-3-|
G:----------------5-5-5-5-5-5-5-----------------2-2-2-2-2-2-2-|
D:-5-5-5-5-5-5-5--5-5-5-5-5-5-5--3-3-3-3-3-3-3--0-0-0-0-0-0-0-|
A:-5-5-5-5-5-5-5--3-3-3-3-3-3-3--3-3-3-3-3-3-3----------------|
E:-3-3-3-3-3-3-3-----------------1-1-1-1-1-1-1----------------|

e:----------------------------------------------1-1-1-1-1-1-1-|
B:----------------------------------------------1-1-1-1-1-1-1-|
G:----------------5-5-5-5-5-5-5-----------------2-2-2-2-2-2-2-|
D:-5-5-5-5-5-5-5--5-5-5-5-5-5-5--3-3-3-3-3-3-3--3-3-3-3-3-3-3-|
A:-5-5-5-5-5-5-5--3-3-3-3-3-3-3--3-3-3-3-3-3-3----------------|
E:-3-3-3-3-3-3-3-----------------1-1-1-1-1-1-1----------------|

e:------------------------------------------------------------|
B:----------------------------------------------3-3-3-3-3-3-3-|
G:----------------5-5-5-5-5-5-5-----------------2-2-2-2-2-2-2-|
D:-5-5-5-5-5-5-5--5-5-5-5-5-5-5--3-3-3-3-3-3-3--0-0-0-0-0-0-0-|
A:-5-5-5-5-5-5-5--3-3-3-3-3-3-3--3-3-3-3-3-3-3----------------|
E:-3-3-3-3-3-3-3-----------------1-1-1-1-1-1-1----------------|

e:---------------------------------------------------2-2-2-2-2-|
B:---------------------------------------------------2-2-2-2-2-|
G:----------------5-5-5-5-5-5-5----------------------3-3-3-3-3-|
D:-5-5-5-5-5-5-5--5-5-5-5-5-5-5--3-3-3-3-3-3-3-------4-4-4-4-4-|
A:-5-5-5-5-5-5-5--3-3-3-3-3-3-3--3-3-3-3-3-3-3/4-4-4-----------|
E:-3-3-3-3-3-3-3-----------------1-1-1-1-1-1-1/2-2-2-----------|


e:------------------------------------------------------------|
B:------------------------------------------------------------|
G:-4-4-4-4-4-4-4----------------------------------------------|
D:-4-4-4-4-4-4-4--5-5-5-5-5-5-5--7-7-7-7-7-7-7-6/7-7-7--7-7-7-|
A:-2-2-2-2-2-2-2--5-5-5-5-5-5-5--7-7-7-7-7-7-7-6/7-7-7--7-7-7-|
E:----------------3-3-3-3-3-3-3--5-5-5-5-5-5-5-4/5-5-5--5-5-5-|

e:-------------------------------------|
B:-3-3-3-3-3---------------------------|
G:-2-2-2-2-2--4-4-4-4-4----------------|
D:-0-0-0-0-0--4-4-4-4-4--5-5-5-5-5-5-5-|
A:------------2-2-2-2-2--5-5-5-5-5-5-5-|
E:-----------------------3-3-3-3-3-3-3-|

                     x4                          
e:--------------------|
B:--------------------|
G:-2-2-------4-4--2-2-|
D:-2-2--5-5--4-4--2-2-|
A:-0-0--5-5--2-2--0-0-|
E:------3-3-----------|

                                     
e:-------|
B:-x--x--|
G:-x--x--|
D:-x--x--|
A:-------|
E:-------|

  pretty women dont make me cry...
e:-----------------------------------------------------------|
B:-------3-----3----------------------3-----3----------------|
G:-------2-----2-------4-----4--------2-----2--------4-----4-|
D:-0-0-0---0-0---------4-----4--0-0-0---0-0----------4-----4-|
A:---------------2-2-2---2-2-------------------2-2-2---2-2---|
E:-----------------------------------------------------------|


e:-----------------------------------|
B:-----------------------------------|
G:-----------------------------------|
D:-------5-----5---------5-----5-----|
A:-------5-----5---------5-----5-----|
E:-3-3-3---3-3---3-3-3-3---3-3---3-3-|

e:-------------------------------------------|
B:-------------------------------------------|
G:-------2-----2-------2-----2-------2-----2-|
D:-------2-----2-------2-----2-------2-----2-|
A:-0-0-0---0-0---0-0-0---0-0---0-0-0---0-0---|
E:-------------------------------------------|


                                      x4
e:-------------------------------------|
B:-------------------------------------|
G:-----------------------------0-4-2-0-|
D:---------------2-2-2--5-5-5----------|
A:-0-0-0--4-4-4------------------------|
E:-------------------------------------|

                    x8
e:-------------------|
B:-------------------|
G:-------------4-2-0-|
D:--------2-5--------|
A:-0-0--4------------|
E:-------------------|


e:------------------------------------------------------------|
B:------------------------------------------------------------|
G:-2----------------------------------------------------------|
D:-2----------------------------------------------------------|
A:-0----------------------------------------------------------|
E:------------------------------------------------------------|



hillo son mex

16/10/12
Добавлено: 30.07.2013
Другие материалы по этой песне:
  • Аккорды и текст

Страница создана 30.07.2013
http://primanota.ru/kimura-kaela/oh-pretty-women-chords.htm
Привет, Гость.
Предлагаем пройти революционный курс по гитаре.
Подарок от PrimaNota.Ru, забирай!