PrimaNota.ru - самый крупный в мире бесплатный архив песенных текстов, аккордов, табулатур и нот


Kimbra - Rescue Him - бас-таба, видео

Регистрация Запомнить меня
Войти через:  Facebook Google Twitter Vk Yandex Mail.ru

Kimbra - Rescue Him - бас-таба, видео

Печатать
Просмотров: 69
-------------------------------------------------------------------------------
                             RESCUE HIM - Kimbra
-------------------------------------------------------------------------------
Tabbed by: corkrolls
E-mail: rlyprofessional@gmail.com

tabbed from Pedro Zappa's transcription for it, the link for the sheet music isnt really
around anymore though.

Tuning: DADG

Intro
G|---------|
D|---------|
A|---------|
D|--5/15\--|

Verses 1+2
G|---------------------------------------|
D|--------------------------0~-----------|
A|-------------------0--2-------3-2-3----|
D|---5~--x-x-----5--------5------------5-|

G|------------------1---1---------------|
D|------------2-------x---------0-------|
A|-------------0~-----------------------|
D|---2~---------------------0~----0~----|

G|----------------------------------------0-0--|
D|--------------------------0~-----------------|
A|-------------------0--2-------3-2-3----------|
D|---5~--x-x-----5---------5----------5~-------|

G|---------------------------------------|
D|-------2--------2----------------------|
A|------------------------0~-------------|
D|--2~-------2~-------2----------0/------|

Repeat verse part 2 more times for the first chorus

Chorus 2
G|--------------------------------------------|
D|--------------------------0~----------------|
A|-------------------0--2-------3-2-3---------|
D|---5~--x-x-x-----5-------5-----------5------|

G|------------------1---1---------------|
D|------------2-------x---------0-------|
A|-------------0~-----------------------|
D|---2~---------------------0~----0~----|

G|----------------------------------------0-0--|
D|--------------------------0~-----------------|
A|-------------------0--2-------3-2-3----------|
D|---5~--x-x----5-----------5~-----------------|

G|---------------------------------------|
D|-------2--------2----------------------|
A|------------------------0~-------------|
D|--2~-------2~-------2----------0/------|

G|------------------------------------------|
D|---------------------0--------------------|
A|---------------0-2-----3-2--2-------------|
D|---5~--xxx-5-5-----5----------5~----------|

G|-------------------2-2------------------|
D|------------2---------------------------|
A|---------------0----------3--5----------|
D|-----2~----------------0----------------|

Bridge
G|-----------------------------2-------------------------|
D|----2--------------------------------------------------|
A|-------5--3--2--x-3-----------------3--5---------------|
D|---------------------5~----------5---------------------|

G|----------------------------0---0-0--------------------|
D|----2--------------------------------------------------|
A|-------5--3--2--x-3------------------------------------|
D|---------------------5~-------5-----5-5-5-5-5-5-5-5----|

G|--------------------5---5-------------------|
D|------------3-3-----------------------------|
A|---3~------------3----3----3----3-3-3-------|
D|--------3-----------------------------5-----|

G|-----------------------------------------------------------------------|
D|------6--6-----------5-------------------(3)-5-3-2-3-2-3/\-------------|
A|-----------------------------------------------------------------------|
D|---6--------6---5-5------5-5-5-5--5-5-5--------------------------------|

Chorus 3
G|-----------------------------------------------|
D|-------------------------(0)-2~--0-------------|
A|---------------------3--------------3-5-0~-----|
D|---7\--(5)-7---7\------x-----------------------|

G|-------------------------------------------------------------------------------------------2---2-|
D|---4\--(3)-4---4\-------------------------------------------(0)-2-(0)-2-0---(0)-2----2-----------|
A|----------------------2-2-2-2---------------------------3-----------------3-------0--0\----------|
D|-------------------------------2-2-2-2---7\--(5)-7--7\----X----------------------------------2---|

G|-----------------------------------------------------------------------------2--2-|
D|---3\---3---3------3---3------------------------------------(0)-2--0--------------|
A|--------------------------2-2-2-2------------0~-x-x-0-2-3-0----------3-3-0~-------|
D|----------3----3~----3-------------2-2-2-2/---------------------------------------|

G|-----------------------------------|
D|--------3-------3------------------|
A|-----------------------2~----------|
D|----3~-----3~------3-------2~------|

Outro
G|----------4-5--0-----0----0-5-7-4--0-------3--5--7-----------|
D|-------------------------------------------1--3--5-----------|
A|---3---2----------2-----3-------------5\---------------------|
D|-------------------------------------------------------------|

G|-----0-----0-----0--4-0-----0-5/7--4---0---3--5--7--0---------|
D|------------------------0------------------1--3--5------------|
A|---3----2----3------------3-----------------------------------|
D|--------------------------------------------------------------|

G|-------0-------0-8-7-5-4-(5)-7-5---0--------3--5--7----------|
D|----------------------------------------5\--1--3--5----------|
A|----3----2---3-----------------------2-----------------------|
D|-------------------------------------------------------------|


| /  slide up
| \  slide down
| h  hammer-on
| p  pull-off
| ~  vibrato
| +  harmonic
| x  Mute note
===============================================================================
Добавлено: 23.04.2016
Другие материалы по этой песне:
  • Аккорды и текст

Страница создана 23.04.2016
http://primanota.ru/kimbra/rescue-him-chords.htm
Привет, Гость.
Предлагаем пройти революционный курс по гитаре.
Подарок от PrimaNota.Ru, забирай!