PrimaNota.ru - самый крупный в мире бесплатный архив песенных текстов, аккордов, табулатур и нот


Kim Richey - Here I Go Again - аккорды и текст, таба, видео

Регистрация Запомнить меня
Войти через:  Facebook Google Twitter Vk Yandex Mail.ru

Kim Richey - Here I Go Again - аккорды и текст, таба, видео

Печатать
Просмотров: 135
Here I Go Again
Kim Richey
		   HERE I GO AGAIN (Kim Richey)
----------------------------
[Actually in Eb; capo 1.]
[In the part with just chords (no tablature), each chord (or group
 of chords joined by hyphens) is two beats, or half a measure.]

  D(9)             Bm7(4)           D(9)             Bm7(4)
E ------0---------|------0---------|------0---------|------0---------|
B ----------3-----|--3-------3-----|----------3-----|--3-------3-----|
G ----2---------2-|----2---------2-|----2---------2-|----2---------2-|
D 0---------------|----------------|0---------------|----------------|
A ----------------|2---------------|----------------|2---------------|
E ----------------|----------------|----------------|----------------|
  ^ . ^ . ^ . ^ .  ^ . ^ . ^ . ^ .  ^ . ^ . ^ . ^ .  ^ . ^ . ^ . ^ .
 [intro; play these 4 measures twice.]

  D(9)             Bm7(4)           G7M              Asus     A
E ------0---------|------0---------|------2---------|----------------|
B ----------3-----|--3-------3-----|----------3-----|------0---2---3-|
G ----2---------2-|----2---------2-|----0-------0---|----------------|
D 0---------------|----------------|----------------|----2-----------|
A ----------------|2---------------|----------------|0---------------|
E ----------------|----------------|3---------------|----------------|
  ^ . ^ . ^ . ^ .  ^ . ^ . ^ . ^ .  ^ . ^ . ^ . ^ .  ^ . ^ . ^ . ^ .
Everytime the phone rings, I wonder if it's you

  D(9)             Bm7(4)           G                Asus     A
E ------0---------|------0---------|----------------|----------------|
B ----------3-----|--3-------3-----|------3---------|------0---2-----|
G ----2---------2-|----2---------2-|----------0-----|----------------|
D 0---------------|----------------|----0-----------|----2-----------|
A ----------------|2---------------|----------------|0---------------|
E ----------------|----------------|3---------------|----------------|
  ^ . ^ . ^ . ^ .  ^ . ^ . ^ . ^ .  ^ . ^ . ^ . ^ .  ^ . ^ . ^ . ^ .
I've about wore out those records we used to listen to

  Em      D/F#     G7M              Em      D/F#     G7M  
E ----------------|------2-------0-|----------------|------2---------|
B ----------------|----------3-----|----------3-----|----------3-----|
G ----------------|----0-------0---|----------------|----0-------0---|
D ----2-------0---|----------------|----2-------0---|----------------|
A ----------------|----------------|----------------|----------------|
E 0-------2-------|3---------------|0-------2-------|3---------------|
  ^ . ^ . ^ . ^ .  ^ . ^ . ^ . ^ .  ^ . ^ . ^ . ^ .  ^ . ^ . ^ . ^ .
And I curse the day I ever let you in

  Em      D/F#     G     G(9)    G        G(9)    G        G(9)
E ----------------|----------------|----------------|----------------|
B ----------------|------3-------0-|------3-------0-|------3---------|
G ----------------|----------2-----|--0-------2-----|--0-------2-----|
D ----2-------0---|----0-----------|----------------|----------------|
A ----------------|----------------|----------------|----------------|
E 0-------2-------|3---------------|----------------|----------------|
  ^ . ^ . ^ . ^ .  ^ . ^ . ^ . ^ .  ^ . ^ . ^ . ^ .  ^ . ^ . ^ . ^ .
'Cause now you're gone and here I go, here I go again


D - D/C#   Bm7(4) - D/A    G7M      A - Asus - A
[instrumental]

       D(9)           Bm7(4)         G7M               A - Asus - A
Well I think about us dancing to that downtown country band
        D(9)               Bm7(4)     G7M                A - Asus - A
And the crooked smile you gave me when you held out your hand
     Em - D/F#   G7M      Em - D/F#  G7M  
And I curse the day I ever let you in
       Em    -     D/F#     G(9)     G(9)   G(9)
'Cause now you're gone and here I go,       here I go again

D - D/C#   Bm7(4) - D/A    G7M      A - Asus - A
[instrumental]
Em - D/F#   G7M      Em - D/F#  G7M      Em - D/F#   G(9)   G(9)
[instrumental]
D - D/C#   Bm7(4) - D/A    G7M      A - Asus - A
[instrumental]

Bm           Bm       E    E
  Sure, it's for the best
        G                  D/F#
And someday I'll laugh the whole thing off, but
Em7                  A  -  A/G   A/F# - A/E
  I'm not quite there yet

    D   -  D/C#   Bm7(4) - D/A    G7M            A - Asus - A
And I try to hang onto        the memory of your touch
      D   -  D/C#    Bm7(4) - D/A    G7M               A - Asus - A
And I tell myself I'm crazy      for   missing you this mmmmuch
     Em - D/F#   G7M      Em - D/F#  G7M  
And I curse the day I ever let you in
       Em    -     D/F#     G(9)     G(9)   G(9)
'Cause now you're gone and here I go,       here I go again

D - D/C#   Bm7(4) - D/A    G7M          A - Asus - A
                    Oooooo-oo-oooh, oh, here I go again
D - D/C#   Bm7(4) - D/A    G7M      A - Asus - A
                    Oooooo-oo-oooh, ooooh
Em - D/F#   G7M      Em - D/F#  G7M      Em - D/F#   G - G-G/F#-G/E   D
[instrumental]     
Добавлено: 15.10.2013
Другие материалы по этой песне:
  • Аккорды и текст

Страница создана 13.06.2012
http://primanota.ru/kim-richey/here-i-go-again-chords.htm
Привет, Гость.
Предлагаем пройти революционный курс по гитаре.
Подарок от PrimaNota.Ru, забирай!