PrimaNota.ru - самый крупный в мире бесплатный архив песенных текстов, аккордов, табулатур и нот


Kim Morrison - Controlame - таба

Регистрация Запомнить меня
Войти через:  Facebook Google Twitter Vk Yandex Mail.ru

Kim Morrison - Controlame - таба

Печатать
Просмотров: 105
Controlame

Intro:
C#
Gm - F#m

Gm                     Em
Cuando vuelvas no estare
F#m                          Dm
Como lo vez, no soy quien crees
Gm                      Em
Soy un extraño con placer,
F#m                  Dm - Gm (Wah wah)   
Y sin una razon de ser


Gm                     Em
Nadie entiende este dolor
F#m                        Dm
Las cosas ya no son como son 
Gm                     Em
Ya no vuelvas nunca mas
F#m                     Dm
Por que yo no te recibire

Gm                        Em
Sin sospecharlo senti dolor
F#m                              Dm
Y ahora que valgo no siento rencor
Gm                         Em
Y ahora y no soy quien crees
F#m                         Dm
Soy un extraño sin compacion

Se repiten los acordes

Siempre supe que no era normal
Soy diferente y con un malestar
Soy un extraño ante ti
Soy un extraño sin control

Pre chorous: A

Gm                                   Bm
Controlame baby no sabes cuanto te amo
Gm                                    Bm
Controlame baby no quiero ser un extraño

Pre solo: Gm
Solo:
|-----------------------------------|-------------------------------------||
|-----------------------------------|-------------------------------------||
|*----------------------------------|------------------------------------*||
|*----------------------------------|-----10-12-13-12~-----10-12-13-12~--*||
|------7--9--10-9~-----7--9--10-9~--|--10---------------10----------------||
|---7---------------7---------------|-------------------------------------||

      
-----------------------------------|---------------------------------|
---------10--12-10-----------------|---------------------------------|
--10--12------------12--10--10~----|--12b---12b---12b---12b---12b----|
-----------------------------------|---------------------------------|
-----------------------------------|---------------------------------|
-----------------------------------|---------------------------------|


|---16-15-13----13----------16-15-13----13----------|
|------------16----16-15-13----------16----16-15-13-|
|*--------------------------------------------------|
|*--------------------------------------------------|
|---------------------------------------------------|
|---------------------------------------------------|

  
--12-11-9----9---------12-11-9----9----------|                    
----------12---12-11-9---------12---12-11-9--| 
--------------------------------------------*| 
--------------------------------------------*| 
---------------------------------------------| 
---------------------------------------------|  

|--------------------------------|                  
|--0-0-0-0-5--0-0-0-0-7--0-0-0-0-|
|--------------------------------|
|--------------------------------|
|--------------------------------|
|--------------------------------|

-----------------------------------|      
--9--0-0-0-0-12--12-12-12-12-12----|
-----------------------------------|         
-----------------------------------| 
-----------------------------------|     
-----------------------------------|

Se repite el coro x2

Outro:

|-----------------------------------|-------------------------------------||
|-----------------------------------|-------------------------------------||
|*----------------------------------|------------------------------------*||
|*----------------------------------|-----10-12-13-12~-----10-12-13-12~--*||
|------7--9--10-9~-----7--9--10-9~--|--10---------------10----------------||
|---7---------------7---------------|-------------------------------------||

|-----------------------------------|-------------------------------------||
|-----------------------------------|-------------------------------------||
|*----------------------------------|------------------------------------*||
|*----------------------------------|-----10-12-13-12~-----10-12-13-12~--*||
|------7--9--10-9~-----7--9--10-9~--|--10---------------10----------------||
|---7---------------7---------------|-------------------------------------||

End....
Добавлено: 25.05.2012
Вам также может быть интересно:
Другие материалы по этой песне:

Страница создана 25.05.2012
http://primanota.ru/kim-morrison/controlame-chords.htm
Привет, Гость.
Предлагаем пройти революционный курс по гитаре.
Подарок от PrimaNota.Ru, забирай!