PrimaNota.ru - самый крупный в мире бесплатный архив песенных текстов, аккордов, табулатур и нот


Kim Mitchell - Lager & Ale - текст песни, таба, видео

Регистрация Запомнить меня
Войти через:  Facebook Google Twitter Vk Yandex Mail.ru

Kim Mitchell - Lager & Ale - текст песни, таба, видео

Печатать
Просмотров: 146
Standard tuning. Weird timing.

Intro-(0:00-0:30) 
   A5
e|------------------------------------------|
b|------------------------------------------|
g|.-2-2-----x-2-2-----2---2---2------------.|
d|.-2-2-----x-2-2-----2---2---2------------.|
a|--0-0-5-3-x-0-0-----0-5-0-3-0------(0-0)--|
E|----------------3^4-------------(3)-------|

Interlude-(0:31-0:40)
  
    P.M.
 G5*    E5*            *Play chord then cut them off.*
|-----|-----|
|-----|-----|
|-----|-----|
|--5--|--2--|
|--5--|--2--|
|--3--|--0--|

Verse-(0:41-0:48) Same as intro.

Interlude-(0:49-0:55)

Verse-(0:56-0:59)

Chorus-(1:00-1:29)
 C5                 D5
|-----------------|-----------------|
|-----------------|-----------------|
|-5-5-5-5-5-5-5-5-|-7-7-7-7-7-7-7-7-|
|-5-5-5-5-5-5-5-5-|-7-7-7-7-7-7-7-7-|
|-3-3-3-3-3-3-3-3-|-5-5-5-5-5-5-5-5-|
|-----------------|-----------------|
  A5
|------------------------------------------|
|------------------------------------------|
|.-2-2-----x-2-2-----2---2---2------------.|
|.-2-2-----x-2-2-----2---2---2------------.|
|--0-0-5-3-x-0-0-----0-5-0-3-0------(0-0)--|
|----------------3^4-------------(3)-------|
 C5                 D5
|-----------------|-----------------|
|-----------------|-----------------|
|-5-5-5-5-5-5-5-5-|-7-7-7-7-7-7-7-7-|
|-5-5-5-5-5-5-5-5-|-7-7-7-7-7-7-7-7-|
|-3-3-3-3-3-3-3-3-|-5-5-5-5-5-5-5-5-|
|-----------------|-----------------|

Four bars of rest.
 
Play twice.

 A5 
|------------------------------------------|
|------------------------------------------|
|.-2-2-----x-2-2-----2---2---2------------.|
|.-2-2-----x-2-2-----2---2---2------------.|
|--0-0-5-3-x-0-0-----0-5-0-3-0------(0-0)--|
|----------------3^4-------------(3)-------|
  A5
|--------------------------------|
|--------------------------------|
|-2-2-----x-2-2------------------|
|-2-2-----x-2-2------------------|
|-0-0-5-3-x-0-0------3-3-4-4-5-5-|
|----------------3^4-------------|

Solo-(1:30-1:50)

Play this six times.

  D5
|------------------------------------------|
|--3-3-----x-3-3-----3---3---3-------------|
|.-2-2-----x-2-2-----2---2---2------------.|
|.-0-0-5-3-x-0-0-----0-5-0-3-0------(0-0)-.|
|----------------3^4-------------(3)-------|
|------------------------------------------|

Then play this twice.

  A5
|------------------------------------------|
|------------------------------------------|
|.-2-2-----x-2-2-----2---2---2------------.|
|.-2-2-----x-2-2-----2---2---2------------.|
|--0-0-5-3-x-0-0-----0-5-0-3-0------(0-0)--|
|----------------3^4-------------(3)-------|

Chorus-(1:51-3:20)

 C5                 D5
|-----------------|-----------------|
|-----------------|-----------------|
|-5-5-5-5-5-5-5-5-|-7-7-7-7-7-7-7-7-|
|-5-5-5-5-5-5-5-5-|-7-7-7-7-7-7-7-7-|
|-3-3-3-3-3-3-3-3-|-5-5-5-5-5-5-5-5-|
|-----------------|-----------------|
  A5
|------------------------------------------|
|------------------------------------------|
|.-2-2-----x-2-2-----2---2---2------------.|
|.-2-2-----x-2-2-----2---2---2------------.|
|--0-0-5-3-x-0-0-----0-5-0-3-0------(0-0)--|
|----------------3^4-------------(3)-------|
 C5                 D5
|-----------------|-----------------|
|-----------------|-----------------|
|-5-5-5-5-5-5-5-5-|-7-7-7-7-7-7-7-7-|
|-5-5-5-5-5-5-5-5-|-7-7-7-7-7-7-7-7-|
|-3-3-3-3-3-3-3-3-|-5-5-5-5-5-5-5-5-|
|-----------------|-----------------|

Four bars of rest.

  A5
|------------------------------------------|
|------------------------------------------|
|.-2-2-----x-2-2-----2---2---2------------.|
|.-2-2-----x-2-2-----2---2---2------------.|
|--0-0-5-3-x-0-0-----0-5-0-3-0------(0-0)--|
|----------------3^4-------------(3)-------|
    P.M.
 G5*    E5*            *Play chord then cut them off.*
|-----|-----|
|-----|-----|
|-----|-----|
|--5--|--2--|
|--5--|--2--|
|--3--|--0--|
 A5
|------------------------------------------|
|------------------------------------------|
|.-2-2-----x-2-2-----2---2---2------------.|
|.-2-2-----x-2-2-----2---2---2------------.|
|--0-0-5-3-x-0-0-----0-5-0-3-0------(0-0)--|
|----------------3^4-------------(3)-------|
    P.M.
 G5*    E5*            *Play chord then cut them off.*
|-----|-----|
|-----|-----|
|-----|-----|
|--5--|--2--|
|--5--|--2--|
|--3--|--0--|
 A5
|------------------------------------------|
|------------------------------------------|
|.-2-2-----x-2-2-----2---2---2------------.|
|.-2-2-----x-2-2-----2---2---2------------.|
|--0-0-5-3-x-0-0-----0-5-0-3-0------(0-0)--|
|----------------3^4-------------(3)-------|
 C5                 D5
|-----------------|-----------------|
|-----------------|-----------------|
|-5-5-5-5-5-5-5-5-|-7-7-7-7-7-7-7-7-|
|-5-5-5-5-5-5-5-5-|-7-7-7-7-7-7-7-7-|
|-3-3-3-3-3-3-3-3-|-5-5-5-5-5-5-5-5-|
|-----------------|-----------------|
 A5
|------------------------------------------|
|------------------------------------------|
|.-2-2-----x-2-2-----2---2---2------------.|
|.-2-2-----x-2-2-----2---2---2------------.|
|--0-0-5-3-x-0-0-----0-5-0-3-0------(0-0)--|
|----------------3^4-------------(3)-------|
C5                 D5
|-----------------|-----------------|
|-----------------|-----------------|
|-5-5-5-5-5-5-5-5-|-7-7-7-7-7-7-7-7-|
|-5-5-5-5-5-5-5-5-|-7-7-7-7-7-7-7-7-|
|-3-3-3-3-3-3-3-3-|-5-5-5-5-5-5-5-5-|
|-----------------|-----------------|
 A5
|------------------------------------------|
|------------------------------------------|
|.-2-2-----x-2-2-----2---2---2------------.|
|.-2-2-----x-2-2-----2---2---2------------.|
|--0-0-5-3-x-0-0-----0-5-0-3-0------(0-0)--|
|----------------3^4-------------(3)-------|

Outro-(3:21-4:06)

 A5
|------------------------------------------|
|------------------------------------------|
|.-2-2-----x-2-2-----2---2---2------------.|
|.-2-2-----x-2-2-----2---2---2------------.|
|--0-0-5-3-x-0-0-----0-5-0-3-0------(0-0)--|
|----------------3^4-------------(3)-------|
Добавлено: 09.03.2012
Другие материалы по этой песне:
  • Аккорды и текст

Страница создана 09.03.2012
http://primanota.ru/kim-mitchell/lager-and-ale-chords.htm
Привет, Гость.
Предлагаем пройти революционный курс по гитаре.
Подарок от PrimaNota.Ru, забирай!