PrimaNota.ru - самый крупный в мире бесплатный архив песенных текстов, аккордов, табулатур и нот


Kim Mitchell - I Am A Wild Party - таба, видео

Регистрация Запомнить меня
Войти через:  Facebook Google Twitter Vk Yandex Mail.ru

Kim Mitchell - I Am A Wild Party - таба, видео

Печатать
Просмотров: 161
Уроки эстрадного вокала в Санкт-Петербурге
Kim Mitchell
I am a Wild Party
Tuning : Drop D

This is my first tab. I saw Kim play this at the Molson Ampitheatre...watched how he 
every lick. Hope you enjoy it.

e|------------------------------|
b|------------------------------|
g|--12/-------------------------|
d|--12/-------------------------|
a|--10/-------------------------|
d|------------------------------|

"I didn't bring expectations, I can represent this nation..."

"I am a Wild Party!"

e|----------------------------------------------------------------|
b|----------------------------------------------------------------|
g|--10-12-10-12-10-12-10------------------------------------------|
d|--10-12-10-12-10-12-10------------------------------------------|
a|--10-10-10-10-10-10-10------------------------------------------|
d|----------------------------------------------------------------|

"Rah Rah Ole!"

e|----------------------------------------------------------------|
b|----------------------------------------------------------------|
g|--5-4--------------5-4--------------5-4----------7-7------------|
d|--5-4--5-3-0-------5-4--5-3-0-------5-4--5-3-0---7-7------------|
a|--3-2--5-3-0-------3-2--5-3-0-------3-2--5-3-0---5-5------------|
d|-------5-3-0------------5-3-0------------5-3-0------------------|

"Ooo I am a late bloomer..."

e|-------------------|
b|-------------------|
g|--5-4----------7-7-|
d|--5-4--5-3-0---7-7-|
a|--3-2--5-3-0---5-5-|
d|-------5-3-0-------|

"Ooo I was ugly as a child..."

e|---------------------|
b|---------------------|
g|--5-4---------5--5-5-|
d|--5-4--5-3----5--5-5-|
a|--3-2--5-3----3--3-3-|
d|-------5-3-----------|

"Pimples on my pimples and scabs on my scabs..."

e|-------------------|
b|-------------------|
g|--5-4----------7-7-|
d|--5-4--5-3-0---7-7-|
a|--3-2--5-3-0---5-5-|
d|-------5-3-0-------|

"I got pretty dimples and my face has class..."

e|------------------|
b|------------------|
g|--7----5---7------|
d|--7----5-5-7------|
a|--5----3-5-5------|
d|---------5--------|

Chorus:

"I am a Wild Party!"

e|----------------------------------------------------------------|
b|----------------------------------------------------------------|
g|--10-12-10-12-10-12-10------------------------------------------|
d|--10-12-10-12-10-12-10------------------------------------------|
a|--10-10-10-10-10-10-10------------------------------------------|
d|----------------------------------------------------------------|

"Rah Rah Ole!"

e|--8-----5-8-7---7---|
b|---8-5-8-----8---8--|
g|--------------7---7-|
d|--------------------|
a|--------------------|
d|--------------------|

"I am a Wild Party!"

e|----------------------------------------------------------------|
b|----------------------------------------------------------------|
g|--10-12-10-12-10-12-10------------------------------------------|
d|--10-12-10-12-10-12-10------------------------------------------|
a|--10-10-10-10-10-10-10------------------------------------------|
d|----------------------------------------------------------------|

"Rah Rah Ole!"

e|--8-----5-8-7---7---|
b|---8-5-8-----8---8--|
g|--------------7---7-|
d|--------------------|
a|--------------------|
d|--------------------|

"Shakin' Like a Human Being!"

e|-----------------------------------------------|
b|-----------------------------------------------|
g|--5-4--------------5-4----------7-7------------|
d|--5-4--5-3-0-------5-4--5-3-0---7-7------------|
a|--3-2--5-3-0-------3-2--5-3-0---5-5------------|
d|-------5-3-0------------5-3-0------------------|

"Ooo I get to drive in a limo..."

e|-------------------|
b|-------------------|
g|--5-4----------7-7-|
d|--5-4--5-3-0---7-7-|
a|--3-2--5-3-0---5-5-|
d|-------5-3-0-------|

"Yeah I gotta crawl out through the god damn window..."

e|---------------------|
b|---------------------|
g|--5-4---------5--5-5-|
d|--5-4--5-3----5--5-5-|
a|--3-2--5-3----3--3-3-|
d|-------5-3-----------|

"Rude and I'm crued..."

e|-------------------|
b|-------------------|
g|--5-4----------7-7-|
d|--5-4--5-3-0---7-7-|
a|--3-2--5-3-0---5-5-|
d|-------5-3-0-------|


"I got pretty dimples and my face has class..."

e|------------------|
b|------------------|
g|--7----5---7------|
d|--7----5-5-7------|
a|--5----3-5-5------|
d|---------5--------|

Chorus:

"I am a Wild Party!"

e|----------------------------------------------------------------|
b|----------------------------------------------------------------|
g|--10-12-10-12-10-12-10------------------------------------------|
d|--10-12-10-12-10-12-10------------------------------------------|
a|--10-10-10-10-10-10-10------------------------------------------|
d|----------------------------------------------------------------|

"Rah Rah Ole!"

e|--8-----5-8-7---7---|
b|---8-5-8-----8---8--|
g|--------------7---7-|
d|--------------------|
a|--------------------|
d|--------------------|

"I am a Wild Party!"

e|----------------------------------------------------------------|
b|----------------------------------------------------------------|
g|--10-12-10-12-10-12-10------------------------------------------|
d|--10-12-10-12-10-12-10------------------------------------------|
a|--10-10-10-10-10-10-10------------------------------------------|
d|----------------------------------------------------------------|

"Rah Rah Ole!"

e|--8-----5-8-7---7---|
b|---8-5-8-----8---8--|
g|--------------7---7-|
d|--------------------|
a|--------------------|
d|--------------------|

"I am a Wild Party!"

e|----------------------------------------------------------------|
b|----------------------------------------------------------------|
g|--10-12-10-12-10-12-10------------------------------------------|
d|--10-12-10-12-10-12-10------------------------------------------|
a|--10-10-10-10-10-10-10------------------------------------------|
d|----------------------------------------------------------------|

"Rah Rah Ole!"

e|--8-----5-8-7---7---|
b|---8-5-8-----8---8--|
g|--------------7---7-|
d|--------------------|
a|--------------------|
d|--------------------|

"Shakin' like a Human Being!"

e|-------------------------|
b|-------------------------|
g|--12--------5-4----------|
d|--12--------5-4--5-3-0---|
a|--10--------3-2--5-3-0---|
d|-----------------5-3-0---|

e|-----------------------------------------------|
b|-----------------------------------------------|
g|--5-4--------------5-4----------7-7------------|
d|--5-4--5-3-0-------5-4--5-3-0---7-7------------|
a|--3-2--5-3-0-------3-2--5-3-0---5-5------------|
d|-------5-3-0------------5-3-0------------------|

(Solo)

e|-----------------------------------------|
b|-----------------------------------------|
g|--5-4----------7-7----5-4---------5--5-5-|
d|--5-4--5-3-0---7-7----5-4--5-3----5--5-5-|
a|--3-2--5-3-0---5-5----3-2--5-3----3--3-3-|
d|-------5-3-0---------------5-3-----------|

e|--------------------------------------|
b|--------------------------------------|
g|--5-4----------7-7---7-----5---7------|
d|--5-4--5-3-0---7-7---7-----5-5-7------|
a|--3-2--5-3-0---5-5---5-----3-5-5------|
d|-------5-3-0-----------------5--------|

Chorus:

e|----------------------------------------------------------------|
b|----------------------------------------------------------------|
g|--10-12-10-12-10-12-10------------------------------------------|
d|--10-12-10-12-10-12-10------------------------------------------|
a|--10-10-10-10-10-10-10------------------------------------------|
d|----------------------------------------------------------------|

e|--8-----5-8-7---7---|
b|---8-5-8-----8---8--|
g|--------------7---7-|
d|--------------------|
a|--------------------|
d|--------------------|

e|---------------------|
b|---------------------|
g|--12-10-12-10-12^-10-|
d|---------------------|
a|---------------------|
d|---------------------|

e|--8-----5-8-7---7---|
b|---8-5-8-----8---8--|
g|--------------7---7-|
d|--------------------|
a|--------------------|
d|--------------------|

e|--15-13-15-13-15^-13-|
b|---------------------|
g|---------------------|
d|---------------------|
a|---------------------|
d|---------------------|

e|--8-----5-8-7---7---|
b|---8-5-8-----8---8--|
g|--------------7---7-|
d|--------------------|
a|--------------------|
d|--------------------|

"Shakin' like a Human Being!"

e|-------------------------|
b|-------------------------|
g|--12--------5-4----------|
d|--12--------5-4--5-3-0---|
a|--10--------3-2--5-3-0---|
d|-----------------5-3-0---|

Bass Only

"I know I'm a lotta feathers and not much chicken,
 I know I'm a lotta feathers and not much chicken!"

"Shakin' like a Human Being!"

e|------------|
b|------------|
g|--12--------|
d|--12--------|
a|--10--------|
d|------------|

(Higher) "I'm Shakin' like a Human Being!"

e|------------|
b|------------|
g|--12--------|
d|--12--------|
a|--10--------|
d|------------|

"I am a Wild Party!"

e|----------------------------------------------------------------|
b|----------------------------------------------------------------|
g|--10-12-10-12-10-12-10------------------------------------------|
d|--10-12-10-12-10-12-10------------------------------------------|
a|--10-10-10-10-10-10-10------------------------------------------|
d|----------------------------------------------------------------|

"Rah Rah Ole!"

e|--8-----5-8-7---7---|
b|---8-5-8-----8---8--|
g|--------------7---7-|
d|--------------------|
a|--------------------|
d|--------------------|

"I am a Wild Party!"

e|----------------------------------------------------------------|
b|----------------------------------------------------------------|
g|--10-12-10-12-10-12-10------------------------------------------|
d|--10-12-10-12-10-12-10------------------------------------------|
a|--10-10-10-10-10-10-10------------------------------------------|
d|----------------------------------------------------------------|

"Rah Rah Ole!"

e|--8-----5-8-7---7---|
b|---8-5-8-----8---8--|
g|--------------7---7-|
d|--------------------|
a|--------------------|
d|--------------------|

"I am a Wild Party!"

e|----------------------------------------------------------------|
b|----------------------------------------------------------------|
g|--10-12-10-12-10-12-10------------------------------------------|
d|--10-12-10-12-10-12-10------------------------------------------|
a|--10-10-10-10-10-10-10------------------------------------------|
d|----------------------------------------------------------------|

"Rah Rah Ole!"

e|--8-----5-8-7---7---|
b|---8-5-8-----8---8--|
g|--------------7---7-|
d|--------------------|
a|--------------------|
d|--------------------|

e|--8-----5-8-7---7---|
b|---8-5-8-----8---8--|
g|--------------7---7-|
d|--------------------|
a|--------------------|
d|--------------------|

e|--8-----5-8-7---7---|
b|---8-5-8-----8---8--|
g|--------------7---7-|
d|--------------------|
a|--------------------|
d|--------------------|

e|----------------------------|
b|----------------------------|
g|--5-4-----------------------|
d|--5-4--5-3-0-0-0-0-0-0-0-0--|
a|--3-2--5-3-0-0-0-0-0-0-0-0--|
d|-------5-3-0-0-0-0-0-0-0-0--|

Thats it. Great song and fun to play. ROCK THE MITCHELL!
Добавлено: 13.03.2012
Другие материалы по этой песне:
  • Аккорды и текст

Страница создана 13.03.2012
http://primanota.ru/kim-mitchell/i-am-a-wild-party-chords.htm
Привет, Гость.
Предлагаем пройти революционный курс по гитаре.
Подарок от PrimaNota.Ru, забирай!