PrimaNota.ru - самый крупный в мире бесплатный архив песенных текстов, аккордов, табулатур и нот


Kim Larsen - Kom Igen - таба, видео

Регистрация Запомнить меня
Войти через:  Facebook Google Twitter Vk Yandex Mail.ru

Kim Larsen - Kom Igen - таба, видео

Печатать
Просмотров: 104
----------------------------------------------
Tabbet af Daniel Olsen

Jeg ved ikke om den er hel rigtig da den er 
lyttet af fra en youtube video, men det er så
tæt på som jeg kan få den :)
----------------------------------------------

Capo 2

   C    G*  Fmaj7 Am  D   G
e|-0----X---0-----0---2---3--|
H|-1----0---1-----1---3---3--|
G|-0----0---2-----2---2---0--|
D|-2----0---3-----2---0---0--|
A|-3----2---3-----0---X---2--|
E|-X----3---X-----X---X---3--|

Intro / Mellemfløjt:

e |------------------------------------------------------|
H |-----3-----------3-----------3-----------3------------|
G |---0---0---0---0---0---0---0---0---0---0---0---0------|
D |-5-------5---3-------3---2-------2---0-------0--------| X 2
A |------------------------------------------------------|
E |------------------------------------------------------|


Vers:

    C                       G*
e |------------------------------------------------------|
H |-----1-----------1-----------0-----------0------------|
G |---0---0---0---0---0---0---0---0---0---0---0-----0----|
D |---------------------------------------------0h2------| X 4
A |-3-------3---3-------3---------------3----------------|
E |-------------------------3-------3--------------------|
   Gå      din vej     du  ser vel jeg  græder...


Intro til omkvæd (Kom igen):

e |------------------------------------------------------|
H |-----3-----------3-----------3-----------3------------|
G |---0---0---0---0---0---0---0---0---0---0---0---0------|
D |-5-------5---3-------3---2-------2---0-------0--------| X 2
A |------------------------------------------------------|
E |------------------------------------------------------|


Omkvæd:

    C           Fmaj7       G*
e |------------------------------------------------------|
H |-----1-----------1-----------0-----------1------------|
G |---0---0---0---2---2---2---0---0---0---0---0---0------|
D |------------------------------------------------------|
A |-3-------3---3-------3---------------3-------2--------|
E |-------------------------3-------3--------------------|
    Kom når syrenerne blomstrer min ven...


    Am          D           G           C
e |------------------------------------------------------|
H |-----1-----------3-----------0-----------1------------|
G |---2---2---2---2---2---2---0---0---0---0---0---0----0-| x 2 (hele verset)
D |-------------0-------0--------------------------------|
A |-0-------0---------------------------3-------3---0h2--|
E |-------------------------3-------3--------------------|
   Og når de går imod forår igen...


Intro til omkvæd (Kom igen):

e |------------------------------------------------------|
H |-----3-----------3-----------3-----------3------------|
G |---0---0---0---0---0---0---0---0---0---0---0---0------|
D |-5-------5---3-------3---2-------2---0-------0--------| X 1
A |------------------------------------------------------|
E |------------------------------------------------------|


Fløjtevers (med bagvedliggende melodi):

    C                       (G*)
e |-0-----------0-----------------------0----------------|
H |-----1---1-------1---1---3---1---3-------0---1--------|
G |---0---0---0---0---0---0---0---0---0---0---0---0------|
D |------------------------------------------------------|
A |-3-------3---3-------3---------------3-------3--------|
E |-------------------------3-------3--------------------|

    C                       (G*)
e |-0-----------0----------------------------------------|
H |-----1---1-------1---1---0---1---3---1---1------------|
G |---0---0---0---0---0---0---0---0---0---0---0---0------|
D |------------------------------------------------------| x 2 (hele verset)
A |-3-------3---3-------3---------------3-------3--------|
E |-------------------------3-------3--------------------|


Overgang:

    C
e |-------------|
H |-----1-------|
G |---0---0---0-|
D |-------------|
A |-3-------3---|
E |-------------|


Vers:

    C                       G*
e |------------------------------------------------------|
H |-----1-----------1-----------0-----------0------------|
G |---0---0---0---0---0---0---0---0---0---0---0-----0----|
D |---------------------------------------------0h2------| X 4
A |-3-------3---3-------3---------------3----------------|
E |-------------------------3-------3--------------------|
   Sad og sang sørgmodige sange...


Intro til omkvæd (Kom igen):

e |------------------------------------------------------|
H |-----3-----------3-----------3-----------3------------|
G |---0---0---0---0---0---0---0---0---0---0---0---0------|
D |-5-------5---3-------3---2-------2---0-------0--------| X 2
A |------------------------------------------------------|
E |------------------------------------------------------|


Omkvæd:

    C           Fmaj7       G*
e |------------------------------------------------------|
H |-----1-----------1-----------0-----------1------------|
G |---0---0---0---2---2---2---0---0---0---0---0---0------|
D |------------------------------------------------------|
A |-3-------3---3-------3---------------3-------2--------|
E |-------------------------3-------3--------------------|
    Kom når syrenerne blomstrer min ven...


    Am          D           G           C
e |------------------------------------------------------|
H |-----1-----------3-----------0-----------1------------|
G |---2---2---2---2---2---2---0---0---0---0---0---0----0-| x 2 (hele verset)
D |-------------0-------0--------------------------------|
A |-0-------0---------------------------3-------3---0h2--|
E |-------------------------3-------3--------------------|
   Og når de går imod forår igen...


Intro til omkvæd (Kom igen):

e |------------------------------------------------------|
H |-----3-----------3-----------3-----------3------------|
G |---0---0---0---0---0---0---0---0---0---0---0---0------|
D |-5-------5---3-------3---2-------2---0-------0--------| X 1
A |------------------------------------------------------|
E |------------------------------------------------------|


Afslutning:

    C                       (G*)
e |-0-----------0-----------------------0----------------|
H |-----1---1-------1---1---3---1---3-------0---1--------|
G |---0---0---0---0---0---0---0---0---0---0---0---0------|
D |------------------------------------------------------|
A |-3-------3---3-------3---------------3-------3--------|
E |-------------------------3-------3--------------------|

    C                       (G*)        C
e |-0-----------0-----------------------X-|
H |-----1---1-------1---1---0---1---3---1-|
G |---0---0---0---0---0---0---0---0---0-0-| 
D |-------------------------------------2-| (Riterdando: Spilles
A |-3-------3---3-------3---------------3-|  langsommere)
E |-------------------------3-------3---X-|

Tekst:

Gå din vej, du ser vel jeg græder
Tåren triller ned af min kind
Nok er jeg en gammel plebejer
Men jeg har et følsomt sind 
Kom igen - Kom igen

Kom når syrenerne blomstrer min ven
Og når det går imod forår igen 
Kom når engang jeg er blevet mig selv 
Og hvis du skal den vej alligevel 
Kom igen - Kom igen 

Sad og sang sørgmodige sange
Til vinden kom og viskede dem ud 
Så dig gå forbi et par gange
Men hvor var du? Da lyset gik ud
Kom igen - kom igen 

Kom når syrenerne blomstrer min ven
Og når det går imod forår igen 
Kom når engang jeg er blevet mig selv 
Og hvis du skal den vej alligevel 
Kom igen - Kom igen
Добавлено: 30.07.2012
Другие материалы по этой песне:
  • Аккорды и текст

Страница создана 30.07.2012
http://primanota.ru/kim-larsen/kom-igen-chords.htm
Привет, Гость.
Предлагаем пройти революционный курс по гитаре.
Подарок от PrimaNota.Ru, забирай!