PrimaNota.ru - самый крупный в мире бесплатный архив песенных текстов, аккордов, табулатур и нот


Kim Jin Pyo - It Had To Be Learned From School - таба, видео

Регистрация Запомнить меня
Войти через:  Facebook Google Twitter Vk Yandex Mail.ru

Kim Jin Pyo - It Had To Be Learned From School - таба, видео

Печатать
Просмотров: 101
E||---------------|----------------|--------------------------|
B||--3-----3------|--3-----3-------|--0-----1---1------1------|
G||------0---0----|------0---0-----|------2---2------2---(2)--|
D||----2----------|----2-----------|----2---------2-----------|
A||--3------------|--2-------------|--0---------0-------------|
E||---------------|----------------|--------------------------|

E||--1-----1-----|---0--------------------------------|
B||------1---1---|---------1---1-3-------1-3-----3----|
G||----2---------|-------0---0---0---0-----0---0---0--|
D||--0-----------|---2-2---2-------2-----2---2--------|
A||--------------|------------------------------------|
E||--------------|------------------------------------|

E||--------0------|----------0-----|--------------------------|
B||--3------------|--3-------------|--0-----1---1------1------|
G||------0---(0)--|--------0---(0)-|------2---2------2---(2)--|
D||----2----------|----2-----------|----2---------2-----------|
A||--3------------|--2-------------|--0---------0-------------|
E||---------------|----------------|--------------------------|

E||--1-----1-----|---0--------------------------------|
B||------1---1---|---------1---1-3-------1-0-----1----|
G||----2---------|-------0---0---0---0---------0------|
D||--0-----------|---2-2---2-------2-----2-0-2--------|
A||--------------|------------------------------------|
E||--------------|------------------------------------|

E||----------------------2---2-2---0h2---2-(2)--|    |--1-----1----3-----3--|
B||--1-----1---0-----0h1------------------------|    |------1----------3----|
G||------2---2-----2-------2-----2-----2--------|<-x2|----2----------4------|
D||----2---------2-------0---------0------------|    |--3----------5--------|
A||--0---------0--------------------------------|    |----------------------|
E||---------------------------------------------|    |----------------------|

Ending
E||----------------------------0--|
B||--3-----3--3-----3--0-----1-1--|
G||--0---0----0---0----2---2---2--|
D||--2-2------2-2------2-2-----2--|
A||--3--------2--------0-------0--|
E||-------------------------------|
Добавлено: 02.01.2016
Другие материалы по этой песне:
  • Аккорды и текст

Страница создана 02.01.2016
http://primanota.ru/kim-jin-pyo/it-had-to-be-learned-from-school-chords.htm
Привет, Гость.
Предлагаем пройти революционный курс по гитаре.
Подарок от PrimaNota.Ru, забирай!