PrimaNota.ru - самый крупный в мире бесплатный архив песенных текстов, аккордов, табулатур и нот


Killwhitneydead - Words Dont Last Forever Your Wounds Will - таба, видео

Регистрация Запомнить меня
Войти через:  Facebook Google Twitter Vk Yandex Mail.ru

Killwhitneydead - Words Dont Last Forever Your Wounds Will - таба, видео

Печатать
Просмотров: 92
Intro (0:16)
   Guitar 1
D#|--------------------------------------------------------|
A#|--------------------------------------------------------|
F#|--------------------------------------------------------|
C#|-------------------------------6-------6----------------|
G#|------5-8-5----------7------8--6-------6---------3------|
C#|--0-0--------0-0-0-0----0-0----6---6-6-6---3-5-6---6-5--|
  |PM. .        . . . .    . .        . .     . . . . . .
  |  
  |Guitar 2
D#|--------------------------------------------------------|
A#|--------------------------------------------------------|
F#|--------------------------------------------------------|
C#|--0-------------------------3--6------------------------|
G#|--0-------------------------3--6-----------------3------|
C#|--0-------------------------3--6-----------3-5-6---6-5--|
   PM                                         . . . . . .

   Guitar 1
D#|--------------------------------------------------------|
A#|--------------------------------------------------------|
F#|--------------------------------------------------------|
C#|-------------------------------6-------6----------------|
G#|------5/8\5----------7------8--6-------6---------0------|
C#|--0-0--------0-0-0-0----0-0----6---6-6-6---3-5-6-0------|
  |PM. .        . . . .    . .        . .     . . . .
  |  
  |Guitar 2
D#|--------------------------------------------------------|
A#|--------------------------------------------------------|
F#|--------------------------------------------------------|
C#|--0-------------------------3--6------------------------|
G#|--0-------------------------3--6-----------------0------|
C#|--0-------------------------3--6-----------3-5-6-0------|
   PM                                         . . . . 

Verse (0:26)
   Guitar 1
D#|--------------------------------------------------------|\
A#|--------------------------------------------------------| \ 
F#|--------------------------------------------------------|  \
C#|-------------------------------6-------6----------------|   \
G#|------5-8-5----------7------8--6-------6---------3------|    \
C#|--0-0--------0-0-0-0----0-0----6---6-6-6---3-5-6---6-5--|     \
  |PM. .        . . . .    . .        . .     . . . . . .         \
  |                                                                \
  |Guitar 2                                                        (x4)
D#|------------------------------------------------------------|     /
A#|------------------------------------------------------------|    /
F#|------------------------------------------------------------|   /
C#|--0-------------------------3--6----------------------------|  /
G#|--0-------------------------3--6-------------------7--------| /
C#|--0-------------------------3--6-----------8-10-11---11-10--|/
   PM                                         . .  .  . .  .

Interlude (0:46)
   Guitar 1
D#|-----------------------------------------------------------------------------------|
A#|-----------------------------------------------------------------------------------|
F#|-------------------------------------------------------8-10-11-10-8----------------|
C#|---------------------------9-------9-----------8-10-11--------------11-10-8--------|
G#|--8---11-8------10--8--11-------8------8-10-11------------------------------11-10--|
C#|-----------------------------------------------------------------------------------|
  |Trem..................................
  | 
  |Guitar 2
D#|------------------------------------------------------------------------|
A#|------------------------------------------------------------------------|
F#|---------------------------------------------------5-7-8-7-5------------|
C#|---------------------------6-------6---------5-7-8-----------8-7-5------|
G#|--5---8-5-------7--5--8---------5------5-7-8-----------------------8-7--|
C#|------------------------------------------------------------------------|
   Trem..................................

   Guitar 1
D#|-------------------------------------------------------|
A#|-------------------------------------------------------|
F#|-------------------------------------------------------|
C#|---------------------------9-------9-------------------|
G#|--8---11-8------10--8--11-------8---------------3------|
C#|------------------------------------------3-5-6---6-5--|
  |Trem..................................  PM. . . . . .
  | 
  |Guitar 2
D#|----------------------------------------------------------|
A#|----------------------------------------------------------|
F#|----------------------------------------------------------|
C#|---------------------------6-------6----------------------|
G#|--5---8-5-------7--5--8---------5----------------7--------|
C#|-----------------------------------------8-10-11---11-10--|
   Trem.................................. PM. .  .  . .  .

Interlude 2 (0:56)
   Guitar 1&2
D#|---------------------------------------------------------------------|
A#|---------------------------------------------------------------------|
F#|---------------------------------------------------------------------|
C#|---------------------------------------------------------------------|
G#|--0--/8---5---0---0---------3-------0--/8---5---0---0---------3------|
C#|--0-----------0---0---0-3-5-----5---0-----------0---0---0-3-5-----5--|
   PM            .   .   . . .                     .   .   . . .

   Guitar 1
D#|-------------------------------------------------------------------------|
A#|-------------------------------------------------------------------------|
F#|-------------------------------------------------------------------------|
C#|-------------------------------------------------------------------------|
G#|--0--/8---5---0---0---------3-------0--/8---5---0---0---------3-------0--|
C#|--0-----------0---0---0-3-5-----5---0-----------0---0---0-3-5-----5---0--|
  |PM            .   .   . . .                     .   .   . . .
  | 
  |Guitar 2
D#|-------------------------------------------------------------------------|
A#|-------------------------------------------------------------------------|
F#|-------------------------------------------------------------------------|
C#|-----/7---3-----------------2----------/7---3-----------------2----------|
G#|--0-----------0---0-------------3---0-----------0---0-------------3---0--|
C#|--0-----------0---0---0-3-5---------0-----------0---0---0-3-5---------0--|
   PM            .   .   . . .                     .   .   . . .


[“You are the biggest piece of shit; I hope you burn in hell.”]


Breakdown (1:13)
   Guitar 1&2
D#|-----------------------------------------------------------------------------------|
A#|-----------------------------------------------------------------------------------|
F#|-----------------------------------------------------------------------------------|
C#|-----------------------------------------------------------------------------------|
G#|--00--00--00---00000000--00-00-8--5--------00--00--00---00000000--00-00-8--5-------|
C#|--00--00--00---00000000--00-00------6-3~---00--00--00---00000000--00-00------6-3~--|
   PM..  ..  ..   ........  .. ..             ..  ..  ..   ........  .. ..
 
D#|-----------------------------------------------------------------------------------|
A#|-----------------------------------------------------------------------------------|
F#|-----------------------------------------------------------------------------------|
C#|-----------------------------------------------------------------------------------|
G#|--00--00--00---00000000--00-00-8--5--------00--00--00---00000000--00-00-8--5-------|
C#|--00--00--00---00000000--00-00------6-3~---00--00--00---00000000--00-00------6-3~--|
   PM..  ..  ..   ........  .. ..             ..  ..  ..   ........  .. .. 

D#|-----------------------------------------------------------------------------------|
A#|-----------------------------------------------------------------------------------|
F#|-----------------------------------------------------------------------------------|
C#|-----------------------------------------------------------------------------------|
G#|--00--00--00---00000000--00-00-------------00--00--00---00000000--00-00-------4*b--|
C#|--00--00--00---00000000--00-00-------------00--00--00---00000000--00-00-0-3-5------|
   PM..  ..  ..   ........  .. ..             ..  ..  ..   ........  .. .. 

D#|-----------------------------------------------------------------------------------|
A#|-----------------------------------------------------------------------------------|
F#|-----------------------------------------------------------------------------------|
C#|-----------------------------------------------------------------------------------|
G#|--00--00--00---00000000--00-00-------------00--00--00---00000000--00-00-0----------|
C#|--00--00--00---00000000--00-00-------------00--00--00---00000000--00-00-0----------|
   PM..  ..  ..   ........  .. ..             ..  ..  ..   ........  .. .. 


[“You're going underneath the ground tonight, and... that's all there is to it.”]


Repeat of Verse (1:47)
   Guitar 1
D#|--------------------------------------------------------|\
A#|--------------------------------------------------------| \ 
F#|--------------------------------------------------------|  \
C#|-------------------------------6-------6----------------|   \
G#|------5-8-5----------7------8--6-------6---------3------|    \
C#|--0-0--------0-0-0-0----0-0----6---6-6-6---3-5-6---6-5--|     \
  |PM. .        . . . .    . .        . .     . . . . . .         \
  |                                                                \
  |Guitar 2                                                        (x4)
D#|------------------------------------------------------------|     /
A#|------------------------------------------------------------|    /
F#|------------------------------------------------------------|   /
C#|--0-------------------------3--6----------------------------|  /
G#|--0-------------------------3--6-------------------7--------| /
C#|--0-------------------------3--6-----------8-10-11---11-10--|/
   PM                                         . .  .  . .  .

Repeat of Interlude (2:07)
   Guitar 1
D#|-----------------------------------------------------------------------------------|
A#|-----------------------------------------------------------------------------------|
F#|-------------------------------------------------------8-10-11-10-8----------------|
C#|---------------------------9-------9-----------8-10-11--------------11-10-8--------|
G#|--8---11-8------10--8--11-------8------8-10-11------------------------------11-10--|
C#|-----------------------------------------------------------------------------------|
  |Trem..................................
  | 
  |Guitar 2
D#|------------------------------------------------------------------------|
A#|------------------------------------------------------------------------|
F#|---------------------------------------------------5-7-8-7-5------------|
C#|---------------------------6-------6---------5-7-8-----------8-7-5------|
G#|--5---8-5-------7--5--8---------5------5-7-8-----------------------8-7--|
C#|------------------------------------------------------------------------|
   Trem..................................

   Guitar 1
D#|-------------------------------------------------------|
A#|-------------------------------------------------------|
F#|-------------------------------------------------------|
C#|---------------------------9-------9-------------------|
G#|--8---11-8------10--8--11-------8---------------3------|
C#|------------------------------------------3-5-6---6-5--|
  |Trem..................................  PM. . . . . .
  | 
  |Guitar 2
D#|----------------------------------------------------------|
A#|----------------------------------------------------------|
F#|----------------------------------------------------------|
C#|---------------------------6-------6----------------------|
G#|--5---8-5-------7--5--8---------5----------------7--------|
C#|-----------------------------------------8-10-11---11-10--|
   Trem.................................. PM. .  .  . .  .

Guitar Solo (w/Interlude backing; Guitar 1&2) (2:17)
   Guitar 3
D#|----------------------------------------------------------------------------------|
A#|------------------------------------------------------------------0123-4321-------|
F#|----------------2345----------------2345-4321------4321------0123-----------4321--|
C#|-----------3456----------------3456-----------5432------5432----------------------|
G#|-0123-4567-----------0123-4567----------------------------------------------------|
C#|----------------------------------------------------------------------------------|

D#|----------------------------------------------------------------------------------|
A#|----------------2345----------------2345-5432------5432-----------4567-8765-------|
F#|-----------2345----------------2345-----------5432------5432-4567-----------8765--|
C#|------3456----------------3456----------------------------------------------------|
G#|-4567----------------4567---------------------------------------------------------|
C#|----------------------------------------------------------------------------------|

[“You have been told, isn't that what you said, huh? HUH?!”]

Repeat of Interlude (2:31)
   Guitar 1&2
D#|---------------------------------------------------------------------|
A#|---------------------------------------------------------------------|
F#|---------------------------------------------------------------------|
C#|---------------------------------------------------------------------|
G#|--0--/8---5---0---0---------3-------0--/8---5---0---0---------3------|
C#|--0-----------0---0---0-3-5-----5---0-----------0---0---0-3-5-----5--|
   PM            .   .   . . .                     .   .   . . .

   Guitar 1
D#|-------------------------------------------------------------------------|
A#|-------------------------------------------------------------------------|
F#|-------------------------------------------------------------------------|
C#|-------------------------------------------------------------------------|
G#|--0--/8---5---0---0---------3-------0--/8---5---0---0---------3-------0--|
C#|--0-----------0---0---0-3-5-----5---0-----------0---0---0-3-5-----5---0--|
  |PM            .   .   . . .                     .   .   . . .
  | 
  |Guitar 2
D#|-------------------------------------------------------------------------|
A#|-------------------------------------------------------------------------|
F#|-------------------------------------------------------------------------|
C#|-----/7---3-----------------2----------/7---3-----------------2----------|
G#|--0-----------0---0-------------3---0-----------0---0-------------3---0--|
C#|--0-----------0---0---0-3-5---------0-----------0---0---0-3-5---------0--|
   PM            .   .   . . .                     .   .   . . .

Repeat of Breakdown (2:44)
   Guitar 1&2
D#|-----------------------------------------------------------------------------------|
A#|-----------------------------------------------------------------------------------|
F#|-----------------------------------------------------------------------------------|
C#|-----------------------------------------------------------------------------------|
G#|--00--00--00---00000000--00-00-------------00--00--00---00000000--00-00-------4*b--|
C#|--00--00--00---00000000--00-00-------------00--00--00---00000000--00-00-0-3-5------|
   PM..  ..  ..   ........  .. ..             ..  ..  ..   ........  .. .. 

D#|-----------------------------------------------------------------------------------|
A#|-----------------------------------------------------------------------------------|
F#|-----------------------------------------------------------------------------------|
C#|-----------------------------------------------------------------------------------|
G#|--00--00--00---00000000--00-00-------------00--00--00---00000000--00-00-------4*b--|
C#|--00--00--00---00000000--00-00-------------00--00--00---00000000--00-00-0-3-5------|
   PM..  ..  ..   ........  .. ..             ..  ..  ..   ........  .. .. 

D#|-----------------------------------------------------------------------------------|
A#|-----------------------------------------------------------------------------------|
F#|-----------------------------------------------------------------------------------|
C#|-----------------------------------------------------------------------------------|
G#|--00--00--00---00000000--00-00-------------00--00--00---00000000--00-00-------4*b--|
C#|--00--00--00---00000000--00-00-------------00--00--00---00000000--00-00-0-3-5------|
   PM..  ..  ..   ........  .. ..             ..  ..  ..   ........  .. .. 

D#|-----------------------------------------------------------------------------------|
A#|-----------------------------------------------------------------------------------|
F#|-----------------------------------------------------------------------------------|
C#|-----------------------------------------------------------------------------------|
G#|--00--00--00---00000000--00-00-------------00--00--00---00000000--00-00-0----------|
C#|--00--00--00---00000000--00-00-------------00--00--00---00000000--00-00-0----------|
   PM..  ..  ..   ........  .. ..             ..  ..  ..   ........  .. .. 

This is an epic song and it's real fun to play. 99% sure this is right, the 1% 
doubt being the solo. If you have a better version of the solo then please correct me.

~ = vibrato
* = pinch harmonic
b = bend
/ = slide up
\ = slide down
Добавлено: 21.07.2012
Вам также может быть интересно:
Другие материалы по этой песне:
  • Аккорды и текст

Страница создана 21.07.2012
http://primanota.ru/killwhitneydead/words-dont-last-forever-your-wounds-will-chords.htm
Привет, Гость.
Предлагаем пройти революционный курс по гитаре.
Подарок от PrimaNota.Ru, забирай!