PrimaNota.ru - самый крупный в мире бесплатный архив песенных текстов, аккордов, табулатур и нот


Killwhitneydead - Where Theres Smoke - таба, видео

Регистрация Запомнить меня
Войти через:  Facebook Google Twitter Vk Yandex Mail.ru

Killwhitneydead - Where Theres Smoke - таба, видео

Печатать
Просмотров: 151
Уроки эстрадного вокала в Санкт-Петербурге
www.killwhitneydead.com

Tuning: C# G# C# F# Bb Db

. = Palm Mute
* = Harmonic

Riff 1:
----------------------------------------------| The 12 are 12's (twelves)
----------------------------------------------|
----------------------------------------------|
----------------------------------------------|
----------------------------------------------|
-00000000000000000000-12121212-8888-3333-1111-|

Riff 2:
----------------------------------|
----------------------------------|
----------------------------------|
-0-000--0-000--0-000--0-000-------|
-0-000--0-000--0-000--0-000-------|
-0-000--0-000--0-000--0-000-------|
   ...    ...    ...    ...

Riff 3:
----------------------------------|
----------------------------------|
----------------------------------|
-0-----0-----0--------------------|
-0-----0-----0--------------------|
-0-----0-----0--------------------|


Riff 4:
----------------------------------|
----------------------------------|
----------------------------------|
-0-3-0-3-5-6-5-3-5-3--------------|
-0-3-0-3-5-6-5-3-5-3--------------|
-0-3-0-3-5-6-5-3-5-3--------------|

Riff 7:
-----------------------------------|
-----------------------------------|
-----------------------------------|
0-3-0-3-5-6-5653-5-3-2-------------|
0-3-0-3-5-6-5653-5-3-2-------------|
0-3-0-3-5-6-5653-5-3-2-------------|
            .... . . .

Riff 6:
----------------------------------|
----------------------------------|
----------------------------------|
-0-3-0-3-5-6-5-3-5----------------|
-0-3-0-3-5-6-5-3-5----------------|
-0-3-0-3-5-6-5-3-5-3*-------------|

Riff 7:
------------------------------------|
------------------------------------|
------------------------------------|
-0-3-0-3-5-6-65353-5-3-2------------|
-0-3-0-3-5-6-65353-5-3-2------------|
-0-3-0-3-5-6-65353-5-3-2------------|
             ..... . . .

Riff 8:
--------------------------------------|
--------------------------------------|
--------------------------------------|
-/6-5--/6-5--/6-5---------------------|
-/6-5--/6-5--/6-5---------------------|
-/6-5--/6-5--/6-5---------------------|

Riff 9:
----------------------------------|
----------------------------------|
----------------------------------|
-65653---5-3-2-0------------------|
-65653---5-3-2-0------------------|
-65653---5-3-2-0------------------|
 .....   . . . .
Добавлено: 01.06.2012
Другие материалы по этой песне:
  • Аккорды и текст

Страница создана 01.06.2012
http://primanota.ru/killwhitneydead/where-theres-smoke-chords.htm
Привет, Гость.
Предлагаем пройти революционный курс по гитаре.
Подарок от PrimaNota.Ru, забирай!