PrimaNota.ru - самый крупный в мире бесплатный архив песенных текстов, аккордов, табулатур и нот


Killwhitneydead - Maybe Death Is A Gift - таба, видео

Регистрация Запомнить меня
Войти через:  Facebook Google Twitter Vk Yandex Mail.ru

Killwhitneydead - Maybe Death Is A Gift - таба, видео

Печатать
Просмотров: 83
               Maybe death is a gift -Kill Whitney dead

Tabed by: Ben Rickman
Email:Benrickman123@yahoo.com

Tuning: Drop D

E|---------------------------------|
B|---------------------------------|
G|---------------------------------|
D|-7~-5~-1~------------------------|
A|-7~-5~-1~-----(4x)---------------|
D|-7~-5~-1~------------------------|

E|----------------------------------------------------------|
B|----------------------------------------------------------|
G|--------------------------------------------------7----8--|
D|-------8-12-10-8s7------------------8-12-10-8s7-8---10----|(2x)
A|--8-10-------------8-5-7~-----8-10------------------------|
D|----------------------------------------------------------|

Move everything up 2 frets

E|----------------------------------------------------------------|
B|----------------------------------------------------------------|
G|---------------------------------------------------------9--10--|
D|--------10-14-12-10s9-------------------10-14-12-10s9-10--12----|(2x)
A|--10-12---------------10-7-8~-----10-12-------------------------|
D|----------------------------------------------------------------|

E|-----------------------------------------------------------------------|
B|-------------10---------7s9-10p9-9-------------------------------------|
G|----------10----8------------------10p8h10s12-12p10h12s14-14p12h14s16--|
D|--9-6-7------------9-6-------------------------------------------------|
A|-----------------------------------------------------------------------|
D|-----------------------------------------------------------------------|

great song by a great band, please rate.

http://profile.myspace.com/index.cfm?fuseaction=user.viewprofile&friendid=1284545


| /  slide up
| \  slide down
| h  hammer-on
| p  pull-off
| ~  ring out
| *  harmonic
| .  Mute note
===============================================================================
Добавлено: 17.04.2012
Другие материалы по этой песне:

Страница создана 17.04.2012
http://primanota.ru/killwhitneydead/maybe-death-is-a-gift-chords.htm
Привет, Гость.
Предлагаем пройти революционный курс по гитаре.
Подарок от PrimaNota.Ru, забирай!