PrimaNota.ru - самый крупный в мире бесплатный архив песенных текстов, аккордов, табулатур и нот


Killwhitneydead - Love Is Like A Mouth Full Of Broken Glass - таба, видео

Регистрация Запомнить меня
Войти через:  Facebook Google Twitter Vk Yandex Mail.ru

Killwhitneydead - Love Is Like A Mouth Full Of Broken Glass - таба, видео

Печатать
Просмотров: 115
Уроки эстрадного вокала в Санкт-Петербурге
tuning Drop C#


intro
|------------|----------------------|---------------------------------|
|------------|----------------------|---------------------------------|
|------------|----------------------|---------------------------------|
|-3203203202-|-32032032023203203202-|-320320320232032032023203203202--|
|------------|----------------------|---------------------------------|
|------------|----------------------|---------------------------------|

|------------|
|------------|
|------------|
|-3203203202-|
|------------|
|------------|


verse
|--------------------------------------------| x4
|--------------------------------------------|
|--------------------------------------------|
|-3334-0000-3334-0000-3334-0000-333444333222-|
|------0000------0000------0000--------------|
|------0000------0000------0000--------------|

|--------------------------|
|--------------------------|
|--------------------------|
|-333222111000111000-------|
|-------------------444333-|
|--------------------------|


breakdown
|----------------------------------------| x4
|----------------------------------------|
|----------------------------------------|
|--------------------------3-00-3-00-3-5-|
|--------------------------3-00-3-00-3-5-|
|-000000000000000000000000-3-00-3-00-3-5-|

|------------|
|------------|
|------------|
|-3203203202-|
|------------|
|------------|


solo
|-1313131414131313131313-1313131414131313131313-1313131414131313131313-|
|----------------------------------------------------------------------|
|----------------------------------------------------------------------|
|----------------------------------------------------------------------|
|----------------------------------------------------------------------|
|----------------------------------------------------------------------|

|-1313131414121212/24-|-1313131414131313131313-1313131414131313131313-|
|---------------------|-----------------------------------------------|
|---------------------|-----------------------------------------------|
|---------------------|-----------------------------------------------|
|---------------------|-----------------------------------------------|
|---------------------|-----------------------------------------------|

|-14/13-13/12-12/11-11/10-10/9-9/8-8/7-7/6-|
|------------------------------------------|
|------------------------------------------|
|------------------------------------------|
|------------------------------------------|
|------------------------------------------|


rythmn behind solo (verse riff)
|--------------------------------------------| x2
|--------------------------------------------|
|--------------------------------------------|
|-3334-0000-3334-0000-3334-0000-333444333222-|
|------0000------0000------0000--------------|
|------0000------0000------0000--------------|



verse 2
|--------------------------------------------| x6
|--------------------------------------------|
|--------------------------------------------|
|-3334-0000-3334-0000-3334-0000-333444333222-|
|------0000------0000------0000--------------|
|------0000------0000------0000--------------|

|--------------------------------------|---|
|--------------------------------------|---|
|--------------------------------------|---|
|-333444333222111222111000---000-------|-0-|
|-------------------------444---444333-|-0-|
|--------------------------------------|-0-|
Добавлено: 18.06.2012
Другие материалы по этой песне:
  • Аккорды и текст

Страница создана 18.06.2012
http://primanota.ru/killwhitneydead/love-is-like-a-mouth-full-of-broken-glass-chords.htm
Привет, Гость.
Предлагаем пройти революционный курс по гитаре.
Подарок от PrimaNota.Ru, забирай!